Guitar Tabs for Dusk 'till Dawn

(/) Slide Up  (\) Slide Down  (h) Hammer On  (p) Pull Off  (b) Bend (r) Release (v) Vibrato (x) Muted

Tabs for Song : Dusk Till Dawn - Zayn ft Sia
Capo: 5

Song lyrics here
   Repeat x2:
   Am7                     F                   C                    G
E|--------0--5--5--5--0--3--------3--3--3--1--0--------3--3--3--1--0--------------0-----------
B|--------1--------------------1--1-----------------1--1-----------------3--1--3------4\3--1--
G|--------0--5--------------------0-----------------0--0-----------------0--------------------
D|-----2--------------------3-----3-----------------------------------------------------------
A|--0--------------------------------------------3-----3--------------2-----------------------
E|--------------------------------------------------------------------------------------------

E|--5--3--0--3--5--------5--3--0--3--5--------5--3-----3--5--------5--3-----3--5--------3--
B|--------------------------------------------------6--------------------6-----------------
G|--5-----------------5--------------------5--5-----------------5--5-----------------5-----
D|--------------------------------------------3--------------3-----3--------------3--------
A|--0--------------0--------------------0--------------------------------------------------
E|-----------------------------------------------------------------------------------------
    C                 G                Am7
E|--0--8--8--8--8--7--7--7--5--7--7--5--0--
B|--1-----------------0-----------------1--
G|--0--0--------------0-----------------0--
D|--2-----------------------------------2--
A|--3-----------------------------------0--
E|--0--8-----------------------------------

E|--
B|--
G|--
D|--
A|--
E|--

E|--
B|--
G|--
D|--
A|--
E|--

E|--
B|--
G|--
D|--
A|--
E|--

Song lyrics here
E|--
B|--
G|--
D|--
A|--
E|--

Paste any tab in acousterr's tab maker and we'll play it !!!
Now supports capo and sound effects for vibrato/pull-off/hammer/bends/mutes etc !!! Checkout help section
tabs and chords, guitar tabs, music contests, music covers, songsterr, reverbnation, renditions, tabulature, bollywood chords, ultimate guitar, yousician, guitar lessons, torrins, fender, gibson, acoustic guitar, electric guitar, youtube covers, gootar, guitar tuner, A-Z tabs, 911 tabs