Guitar Tabs for Duniyaa - Lukka Chupi Guitar Tab Sheets

(/) Slide Up  (\) Slide Down  (h) Hammer On  (p) Pull Off  (b) Bend (r) Release (v) Vibrato (x) Muted

Tabs for Song : Duniyaa - Lukka Chupi
BPM : 200

Entro
E|-----------1-----------------1-----------------1-----------------------------
B|-----------------------------------------------------------------3-----------
G|-----------------------------------------------------------------------2-----
D|--------3-----------------3-----------------3-----------------3--------------
A|--1-----------------------------------------------------3--------------------
E|--------------------1-----------------3--------------------------------------

Entro
E|-----------1-----------------1-----------------1--------------
B|--------------------------------------------------------------
G|--------------------------------------------------------------
D|--------3-----------------3-----------------3-----------------
A|--1-----------------------------------------------------------
E|--------------------1-----------------3-----------------------
bulaave tujhe yaar ajj meri galiyaa
E|--------------------------------------------------------------
B|--------------------------------------------------------------
G|--3--2--3--0--2--0------------0\2--0--0------0\2---0\2--------
D|--------------------3--3--3--------------3--------------------
A|--------------------------------------------------------------
E|--------------------------------------------------------------
Basaau tere sang main alag duniyaa
E|-----------------------------------------------------
B|-----------------------------------------------------
G|--3---2/3--0--2--0--------2--3--2--2--0--0-----------
D|--------------------3--3-----------------------------
A|-----------------------------------------------------
E|-----------------------------------------------------
Entro
E|-----------1-----------------1-----------------1--------------
B|--------------------------------------------------------------
G|--------------------------------------------------------------
D|--------3-----------------3-----------------3-----------------
A|--1-----------------------------------------------------------
E|--------------------1-----------------3-----------------------

E|-----------------------------------------------------------
B|-----------------------------------------------------------
G|--3--2--3--0--2--0------------0/2--0--0------0/2---0/2-----
D|--------------------3--3--3--------------3-----------------
A|-----------------------------------------------------------
E|-----------------------------------------------------------

E|-------------------------------------------------
B|--------------------------------------------------
G|--3--2--3--0--2--0--------2--3--2--2--0--0--------
D|--------------------3--3--------------------------
A|--------------------------------------------------
E|--------------------------------------------------

E|-----------------------------------------------------
B|-----------------------------------------------------
G|--3--2--3--0--2--0-----------0--0--5--3--2--2--3-----
D|--------------------3--3--3--------------------------
A|-----------------------------------------------------
E|-----------------------------------------------------

E|--------------------------------------------------
B|--------------------------------------------------
G|--3--2--3--0--2--0--------2--3--2--2--0--0--------
D|--------------------3--3--------------------------
A|--------------------------------------------------
E|--------------------------------------------------

E|-----------------------------------------------------
B|--4--3--4--1--3--1--------3---3\4--3--3--1--1--------
G|--------------------3--3-----------------------------
D|-----------------------------------------------------
A|-----------------------------------------------------
E|-----------------------------------------------------

E|-----------------------------------------------------
B|--3--1--3--1--3-----------1---1\3--1--1--------------
G|-----------------2--2--2-----------------3--3--------
D|-----------------------------------------------------
A|-----------------------------------------------------
E|-----------------------------------------------------

E|-----------------------------1-----------------
B|--4--3--4--1--3--1--------3-----4---3\1--------
G|--------------------3--3-----------------------
D|-----------------------------------------------
A|-----------------------------------------------
E|-----------------------------------------------

E|-----------------------------------------------------------------
B|--1---1\3--1--1--1--1--------1---1\3--1--------------1-----------
G|-----------------------2--2--------------3--3-----2--------------
D|-----------------------------------------------------------------
A|-----------------------------------------------------------------
E|-----------------------------------------------------------------

E|--------------------------------------------------------------------
B|-----------1--------------------------------------1-----------------
G|--3-----2--------2--3-----2--0--2-----0--3-----2--------2--3--------
D|-----------------------------------3--------------------------------
A|--------------------------------------------------------------------
E|--------------------------------------------------------------------

E|-----------------------------------------------------------------------------------------------------
B|-----------1--------------------------------3--1--3--4---3h4--1------3\1-----------------------------
G|--3-----2--------2--3-----2--0--2-----0--------------------------3--------3---2\3--0--2---2\3--------
D|-----------------------------------3-----------------------------------------------------------------
A|-----------------------------------------------------------------------------------------------------
E|-----------------------------------------------------------------------------------------------------

E|---------1\3-----1---1h3-----------------------------------------------
B|------------------------------4/3--------3---1/3--4--3---1/3-----------
G|--3--3--------------------------------------------------------3--------
D|-----------------------------------------------------------------------
A|-----------------------------------------------------------------------
E|-----------------------------------------------------------------------

E|---------1/3-----1---1h3--------------------------------------------------------------
B|---------------------------4/3-----3--1--3--4--3--1--3--1-----------------------------
G|--3--3--------------------------------------------------------3---5\-3\2---3\5--------
D|--------------------------------------------------------------------------------------
A|--------------------------------------------------------------------------------------
E|--------------------------------------------------------------------------------------

E|-----------------------------------------------------------------------------------------
B|-----------------------------------------------------------3--3--------------------------
G|--5--3---3\5--5--3--5--3--5--3---3\5--5--3--5--3--5--3--5--------5--3--2---2\3-----------
D|--------------------------------------------------------------------------------5--------
A|-----------------------------------------------------------------------------------------
E|-----------------------------------------------------------------------------------------

E|-----------------------------------------------------------
B|-----------------------------------------------------------
G|--3--2--3---0\2--0--0------------0h2--0------0\2---0\2-----
D|-----------------------3--3--3-----------3-----------------
A|-----------------------------------------------------------
E|-----------------------------------------------------------

E|-----------------------------------------------
B|-----------------------------1-----------------
G|--3--2--3--0--2--0--------2-----3--2--0--0-----
D|--------------------3--3-----------------------
A|-----------------------------------------------
E|-----------------------------------------------

E|-----------------------------------------------------------
B|-----------------------------------------------------------
G|--3--2--3--0--2--0------------0\2--0--0------0\2---0\2-----
D|--------------------3--3--3--------------3-----------------
A|-----------------------------------------------------------
E|-----------------------------------------------------------

E|--------------------------------------------------
B|--------------------------------------------------
G|--3---2\3--0--2--0--------2--3--2--2--0--0--------
D|--------------------3--3--------------------------
A|--------------------------------------------------
E|--------------------------------------------------

Use manual mode to free up cursor. Paste any tab in acousterr tab maker and we'll play it !!!
tabs and chords, guitar tabs, music transcription, music technology, deep learning, music information retrieval, transcribe into tabs & chords, chordify, music renditions, songsterr, reverbnation, tabulature, bollywood chords, ultimate guitar, yousician, guitar lessons, acoustic guitar, electric guitar, guitar tuner, 911 tabs