Guitar Tabs for Te Amo - Dum Maaro Dum Tabs

(/) Slide Up  (\) Slide Down  (h) Hammer On  (p) Pull Off  (b) Bend (r) Release (v) Vibrato (x) Muted

Tabs for Song : Te Amo

Intro
E|--------2--------------2--------------2--------------2--------
B|--------------5--------------2--------------4--------------2--
G|--4--4-----4-----4--4-----4-----4--4-----4-----4--4-----4-----
D|--------------------------------------------------------------
A|--------------------------------------------------------------
E|--------------------------------------------------------------

Kisi ko sapna lagey tu Kisi ko behti hawaa
E|--------------------------------------------------------------
B|-----5--5--4-----------------------5--5--4--------------------
G|--------------6--4--3--4--3--6--------------6--4--3--4--3-----
D|--4-----------------------------4--------------------------6--
A|--------------------------------------------------------------
E|--------------------------------------------------------------

Kisi ko bas baaton mein Kare pal mein yahaan wahaan
E|--4--4--4--4--2--4--2-----------------2--------
B|-----------------------2--4--5--4--5-----4--2--
G|-----------------------------------------------
D|-----------------------------------------------
A|-----------------------------------------------
E|-----------------------------------------------

Kisi ke sau jhoot sun le Kisi ka sacch bhi gunaah
E|--------------------------------------------------------------
B|-----5--5--4-----------------------5--5--4--------------------
G|--------------6--4--3--4--3--6--------------6--4--3--4--3-----
D|--4-----------------------------4--------------------------6--
A|--------------------------------------------------------------
E|--------------------------------------------------------------

Kisi ki bas yaadon mein Kare hulchul saara jahaan
E|--4--4--4--4--2--4--2-----------------2--------
B|-----------------------2--4--5--4--5-----4--2--
G|-----------------------------------------------
D|-----------------------------------------------
A|-----------------------------------------------
E|-----------------------------------------------

Te amo me te amo Tu chhaanv hai, tu dhoop hai
E|--------------------------------------------------
B|--2--4--4--2--2--4--4--2--------------------------
G|--------------------------4--3--4--4--3--3--4--4--
D|--------------------------------------------------
A|--------------------------------------------------
E|--------------------------------------------------

Te amo me te amo Tere hazaron roop hai
E|--------------------------------------------------
B|--2--4--4--2--2--4--4--2--------------2-----------
G|--------------------------4--3--4--4-----3--4--4--
D|--------------------------------------------------
A|--------------------------------------------------
E|--------------------------------------------------

Koi samjha nahin Jo bhi hai bas khoob hai
E|--------------------------------------------------
B|--2--4--5--5--4--2--5--5--4--2--------------------
G|--------------------------------1--3---1/3--1-----
D|-----------------------------------------------4--
A|--------------------------------------------------
E|--------------------------------------------------

Falling so crazy in love
E|--2--2--2--2-----------
B|--------------5--4--2--
G|-----------------------
D|-----------------------
A|-----------------------
E|-----------------------

Te amo me te amo Tu chhaanv hai, tu dhoop hai
E|--------------------------------------------------
B|--2--4--4--2--2--4--4--2--------------------------
G|--------------------------4--3--4--4--3--3--4--4--
D|--------------------------------------------------
A|--------------------------------------------------
E|--------------------------------------------------

Te amo me te amo Tere hazaron roop hai
E|--------------------------------------------------
B|--2--4--4--2--2--4--4--2--------------2-----------
G|--------------------------4--3--4--4-----3--4--4--
D|--------------------------------------------------
A|--------------------------------------------------
E|--------------------------------------------------
tabs and chords, guitar tabs, music contests, music covers, songsterr, reverbnation, renditions, tabulature, bollywood chords, ultimate guitar, yousician, guitar lessons, torrins, fender, gibson, acoustic guitar, electric guitar, youtube covers, gootar, guitar tuner, A-Z tabs, 911 tabs