Guitar Tabs for Dream Team

(/) Slide Up  (\) Slide Down  (h) Hammer On  (p) Pull Off  (b) Bend (r) Release (v) Vibrato (x) Muted

Tabs for Song : 

Song lyrics here
E|--------------------------------------------------------------------------------------------------------------------------------------------------------------
B|--------------------------------------------------------------------------------------------------------------------------------------------------------------
G|-----2-----2-----2--2--2--2--2--2--2--2-----2-----2-----2--2--2--2--2--2--2--2-----2-----2-----2--2--2--2--2--2--2--2-----2-----2-----2--2--2--2--2---2/6--6--
D|--------------4--------------------------4-----2-----0--------------------------------------------------------------------------------------------------------
A|--0-----4-----------------------------------------------------------------------0-----4-----------------------------------------------------------------------
D|--------------------------------------------------------------------------------------------4--------------------------4-----2-----0--------------------------

E|--------------------------------------------------------------------------------------------------------------------
B|--------------------------------------------------------------------------------------------------------------------
G|-----7--7-----6--6-----4--4-----2--2-----2--2--2--2--2--2--2--2-----7--7-----4--4-----2-----2--2--2--2--2--2--2--2--
D|--------------------------------------------------------------------------------------------------------------------
A|--------------------------------------------------------------------------------------------------------------------
D|--6--------7--------2--------4--------0--------------------------6--------2--------4-----0--------------------------

E|--------------------------------------------------------------------------------------------------------------------------------------------------------------------
B|--------2--------2--------2--------2--------------0--------0--------0--------0--------------------------------------------------------------------------------------
G|-----2--------2--------2--------2--------------2--------2--------2--------2-----------------2--------2--------2--------2--------------6--------6--------6--------6--
D|--4--------4--------4--------4--------4--2--0--------0--------0--------0-----------------4--------4--------4--------4--------------4--------4--------4--------4-----
A|--------------------------------------------------------------------------------0--4--4--------4--------4--------4--------4--2--7--------7--------7--------7--------
D|--------------------------------------------------------------------------------------------------------------------------------------------------------------------

E|-----------------------------------------------------------------------------------------------------------------------------
B|-----------------------------------------------------------------------------------------------------------------------------
G|-----4--4-----2--2-----7--6-----2--------2--------2--------2--------6--6-----1--1-----2-----2--------2--------2--------2-----
D|-----------------------------------4--------4--------4--------4--------------------------------4--------4--------4--------4--
A|-----------------------------------------------------------------------------------------------------------------------------
D|--2--------4--------6--------0--------0--------0--------0--------4--------2--------4-----0--------0--------0--------0--------

E|-----------------------------------------------------------0--------------------7
B|-----------------------------------------------------------0--------------------
G|------------------------6\9-----------------------------4--1---6\9--------------
D|------------------------4\7-----------------------------6--2---4\7--------------
A|-----------------------------------------------------------2--------------------
D|--7--7--7--7--7--7--7--------7--7--7--7--7--7--7--7--7--------------7--7--7--7--

Song lyrics here
E|--
B|--
G|--
D|--
A|--
D|--

Paste any tab in acousterr's tab maker and we'll play it !!!
Now supports capo and sound effects for vibrato/pull-off/hammer/bends/mutes etc !!! Checkout help section
tabs and chords, guitar tabs, music transcription, music technology, deep learning, music information retrieval, transcribe into tabs & chords, chordify, music renditions, songsterr, reverbnation, tabulature, bollywood chords, ultimate guitar, yousician, guitar lessons, acoustic guitar, electric guitar, guitar tuner, 911 tabs