Dragon Ball Fighterz - Dragon Ball Super Broly Tabs - Guitar Tabs

(/) Slide Up  (\) Slide Down  (h) Hammer On  (p) Pull Off  (b) Bend (r) Release (v) Vibrato (x) Muted

Tabs for Song : 
 

E|--------13----12----------------------------------------------------------------------------------
B|-----10----10----10-13-10-15----------------------------------11-------------------------------6--
G|-----------------------------14-12-14-12-------------10-12-14----14-12-10-9--10-12-7--6--7--9-----
D|--12-------------------------------------15-14-15-14----------------------------------------------
A|--------------------------------------------------------------------------------------------------
E|--------------------------------------------------------------------------------------------------

E|--------13----12-------------------------------------------------------------------------
B|-----10----10----10-13-10-15----------------------------------11-------------------------
G|-----------------------------14-12-14-12-------------10-12-14----14-12-10-9--10-12-7--7--
D|--12-------------------------------------15-14-15-14-------------------------------------
A|-----------------------------------------------------------------------------------------
E|-----------------------------------------------------------------------------------------

E|--------------------------------------------------------------------------------------------
B|--------------------------------------------------------------------------------------------
G|--------------------------------2-----------------------------------------------------------
D|--2--2--2--2---3p2--2--2--2--2-----2--2--2---5p2--2--2--2--2---5p2--2--2--2--2--2--2--5v----
A|--------------------------------------------------------------------------------------------
E|--------------------------------------------------------------------------------------------

E|--------------------------------------------------------------------------
B|--------------------------------------------------------------------------
G|--------------------------------2-----------------------------3-----2-----
D|--2--2--2--2---3p2--2--2--2--2-----2--2--2---5b2--5-----5-----3-----2-----
A|--------------------------------------------------3-----5-----1-----0-----
E|--------------------------------------------------------5-----------------

E|--------------------------------------------------------------------------------------------
B|--------------------------------------------------------------------------------------------
G|--------------------------------2-----------------------------------------------------------
D|--2--2--2--2---3p2--2--2--2--2-----2--2--2---5p2--2--2--2--2---5p2--2--2--2--2--2--2--5v----
A|--------------------------------------------------------------------------------------------
E|--------------------------------------------------------------------------------------------

E|--------------------------------------------------------------------------
B|--------------------------------------------------------------------------
G|--------------------------------2-----------------------------------8--9v-
D|--2--2--2--2---3p2--2--2--2--2-----2--2--2---5b2-----------7--9--10-------
A|--------------------------------------------------5--7--8-----------------
E|--------------------------------------------------------------------------

E|--------------------------------------------------------------------------------------------
B|--------------------------------------------------------------------------------------------
G|--------------------------------2-----------------------------------------------------------
D|--2--2--2--2---3p2--2--2--2--2-----2--2--2---5p2--2--2--2--2---5p2--2--2--2--2--2--2--5v----
A|--------------------------------------------------------------------------------------------
E|--------------------------------------------------------------------------------------------

E|--------------------------------------------------------------------------
B|--------------------------------------------------------------------------
G|--------------------------------2-----------------------------3-----2-----
D|--2--2--2--2---3p2--2--2--2--2-----2--2--2---5b2--5-----5-----3-----2-----
A|--------------------------------------------------3-----5-----1-----0-----
E|--------------------------------------------------------5-----------------

E|--------------------------------------------------------------------------------------------
B|--------------------------------------------------------------------------------------------
G|--------------------------------2-----------------------------------------------------------
D|--2--2--2--2---3p2--2--2--2--2-----2--2--2---5p2--2--2--2--2---5p2--2--2--2--2--2--2--5v----
A|--------------------------------------------------------------------------------------------
E|--------------------------------------------------------------------------------------------

E|--------------------------------------------------------------------------
B|--------------------------------------------------------------------------
G|--------------------------------2-----------------------------------8--9v-
D|--2--2--2--2---3p2--2--2--2--2-----2--2--2---5b2-----------7--9--10-------
A|--------------------------------------------------5--7--8-----------------
E|--------------------------------------------------------------------------

E|-----------------------------------------------------
B|-----------------------------------------------------
G|--10----------------8--9-----------------------------
D|--10-------7--9--10----------9-----9-----9-----9-----
A|--8-----8--------------------9-----9-----9-----9-----
E|-----------------------------9-----9-----9-----9-----

E|--------------------3--------------3--5-----------------------3-----------7--5--3-----
B|--3--5--5--5--5--5-----------5--------------3--5--5--5--5--5--------5--------------7--
G|--------------------------------------------------------------------------------------
D|--------------------------------------------------------------------------------------
A|--------------------------------------------------------------------------------------
E|--------------------------------------------------------------------------------------


E|--------------------3-----------3--5--5--5--6--6--6--6--------------4--4--4--4--3--3--3--3--
B|--3--5--5--5--5--5--------5-----------------------------6--6--6--6--------------------------
G|--------------------------------------------------------------------------------------------
D|--------------------------------------------------------------------------------------------
A|--------------------------------------------------------------------------------------------
E|--------------------------------------------------------------------------------------------


E|--------0--0--0--0--3------------------3h5--------------0--0--0--0--3------------------3h5--------
B|--3--5--------------------------5-----------------3--5--------------------------5-----------------
G|--------------------------------------------------------------------------------------------------
D|--------------------------------------------------------------------------------------------------
A|--------------------------------------------------------------------------------------------------
E|--------------------------------------------------------------------------------------------------

E|--------0--0--0--0--3-----------0------3h5--------------------------3-----------3-----5-----------
B|--3--5---------------------------------3h5--------3-----5-----6-----------6-----------------5-----
G|--------------------------------------------------------------------------------------------------
D|--------------------------------------------------------------------------------------------------
A|--------------------------------------------------------------------------------------------------
E|--------------------------------------------------------------------------------------------------

E|--------------------------------------------------------------------------------------------------
B|--6--------------------8-----------6-----------3-----------6--------5-----------------------------
G|--------------------------------------------------------------------------------------------------
D|--------------------------------------------------------------------------------------------------
A|--------------------------------------------------------------------------------------------------
E|--------------------------------------------------------------------------------------------------

E|--------------------------------------------------------------------------------------------------
B|--6--------------------8-----------6-----------10----------12----------16-------------------------
G|--------------------------------------------------------------------------------------------------
D|--------------------------------------------------------------------------------------------------
A|--------------------------------------------------------------------------------------------------
E|--------------------------------------------------------------------------------------------------

E|--------------------3--------------3--5-----------------------3-----------7--5--3-----
B|--3--5--5--5--5--5-----------5--------------3--5--5--5--5--5--------5--------------7--
G|--------------------------------------------------------------------------------------
D|--------------------------------------------------------------------------------------
A|--------------------------------------------------------------------------------------
E|--------------------------------------------------------------------------------------


E|--------------------3-----------3--5--5--5--6--6--6--6--------------4--4--4--4--3--3--3--3--
B|--3--5--5--5--5--5--------5-----------------------------6--6--6--6--------------------------
G|--------------------------------------------------------------------------------------------
D|--------------------------------------------------------------------------------------------
A|--------------------------------------------------------------------------------------------
E|--------------------------------------------------------------------------------------------


E|--------0--0--0--0--3------------------3h5--------------0--0--0--0--3------------------3h5--------
B|--3--5--------------------------5-----------------3--5--------------------------5-----------------
G|--------------------------------------------------------------------------------------------------
D|--------------------------------------------------------------------------------------------------
A|--------------------------------------------------------------------------------------------------
E|--------------------------------------------------------------------------------------------------

E|--------0--0--0--0--3-----------0------3h5--------------------------3-----------3-----5-----------
B|--3--5---------------------------------3h5--------3-----5-----6-----------6-----------------5-----
G|--------------------------------------------------------------------------------------------------
D|--------------------------------------------------------------------------------------------------
A|--------------------------------------------------------------------------------------------------
E|--------------------------------------------------------------------------------------------------

E|--------------------------------------------------------------------------------------------------
B|--15-10-8--10-15-10-15-10-8--10-15-10-20-10-8--10-15-10-7--10-15-10-15-10-7--10-15-10-22-10-7--10-
G|--------------------------------------------------------------------------------------------------
D|--------------------------------------------------------------------------------------------------
A|--------------------------------------------------------------------------------------------------
E|--------------------------------------------------------------------------------------------------

E|--------------------------------------------------------------------------------------------------
B|--15-10-6--10-15-10-15-10-6--10-15-10-17-10-6--10-13-6--8--13-8--6--13-6--8--13-8--6--13-6--13-6--
G|--------------------------------------------------------------------------------------------------
D|--------------------------------------------------------------------------------------------------
A|--------------------------------------------------------------------------------------------------
E|--------------------------------------------------------------------------------------------------

E|--------------------------------------------------------------------------------------------------
B|--13-6--8--15-8--6--13-6--8--15-8--6--13-6--15-6--11-6--8--13-8--6--11-6--8--13-8--6--11-6--13-6--
G|--------------------------------------------------------------------------------------------------
D|--------------------------------------------------------------------------------------------------
A|--------------------------------------------------------------------------------------------------
E|--------------------------------------------------------------------------------------------------

E|--12-9-----------9--12-9--15-12-9-----------9--12-9--17-14-10-14-17-14-17-14-10-14-17-14-17-14-10-
B|--------10----10-------------------10----10-------------------------------------------------------
G|-----------9--------------------------9-----------------------------------------------------------
D|--------------------------------------------------------------------------------------------------
A|--------------------------------------------------------------------------------------------------
E|--------------------------------------------------------------------------------------------------

E|--------------------------------------------------------------------------------------------------
B|--15-10-8--10-15-10-15-10-8--10-15-10-20-10-8--10-15-10-7--10-15-10-15-10-7--10-15-10-22-10-7--10-
G|--------------------------------------------------------------------------------------------------
D|--------------------------------------------------------------------------------------------------
A|--------------------------------------------------------------------------------------------------
E|--------------------------------------------------------------------------------------------------

E|--------------------------------------------------------------------------------------------------
B|--15-10-6--10-15-10-15-10-6--10-15-10-17-10-6--10-13-6--8--13-8--6--13-6--8--13-8--6--13-6--13-6--
G|--------------------------------------------------------------------------------------------------
D|--------------------------------------------------------------------------------------------------
A|--------------------------------------------------------------------------------------------------
E|--------------------------------------------------------------------------------------------------

E|--------------------------------------------------------------------------------------------------
B|--13-6--8--15-8--6--13-6--8--15-8--6--13-6--15-6--11-6--8--13-8--6--11-6--8--13-8--6--11-6--13-6--
G|--------------------------------------------------------------------------------------------------
D|--------------------------------------------------------------------------------------------------
A|--------------------------------------------------------------------------------------------------
E|--------------------------------------------------------------------------------------------------

E|--12-9-----------9--12-9--15-12-9-----------9--12-9--12-9-----------9--12-9--15-12-9-----------9--
B|--------10----10-------------------10----10----------------10----10-------------------10----10----
G|-----------9--------------------------9-----------------------9--------------------------9--------
D|--------------------------------------------------------------------------------------------------
A|--------------------------------------------------------------------------------------------------
E|--------------------------------------------------------------------------------------------------

E|--17-14-10-14-17-14-17-14-10-14-17-14-17-14-10-14-17-14-10-14-17-14-17-14-10-14-17-14-17-14-10-14-
B|--------------------------------------------------------------------------------------------------
G|--------------------------------------------------------------------------------------------------
D|--------------------------------------------------------------------------------------------------
A|--------------------------------------------------------------------------------------------------
E|--------------------------------------------------------------------------------------------------

E|--22-17-14-17-22-17-14-17-22-17-14-17-22-17-14-17-22-17-14-17-22-17-22-17-14-17-22-17-22-17-14-17-
B|--------------------------------------------------------------------------------------------------
G|--------------------------------------------------------------------------------------------------
D|--------------------------------------------------------------------------------------------------
A|--------------------------------------------------------------------------------------------------
E|--------------------------------------------------------------------------------------------------

E|-----------------------------------------------------------------
B|-----------------------------------------------------------------
G|-----------------------------------------------------------------
D|--2-----2--2--2-----2-----2--2--2-----2-----2--2--2-----3-----0--
A|--2-----2--2--2-----2-----2--2--2-----2-----2--2--2-----3-----0--
E|--2-----2--2--2-----2-----2--2--2-----2-----2--2--2-----3-----0--

E|-----------------------------------------------------------------
B|-----------------------------------------------------------------
G|-----------------------------------------------------------------
D|--2-----2--2--2-----2-----2--2--2-----2-----2--2--2-----0--0--2--
A|--2-----2--2--2-----2-----2--2--2-----2-----2--2--2-----0--0--2--
E|--2-----2--2--2-----2-----2--2--2-----2-----2--2--2-----0--0--2--

E|-----------------------------------------------------------------------------------19b20----19v---
B|--------12/13----12----10-------------------------------12/13-12----12/15----12-------------------
G|--9-----------------------------9-----7-----9-----9-----------------------------------------------
D|--------------------------------------------------------------------------------------------------
A|--------------------------------------------------------------------------------------------------
E|--------------------------------------------------------------------------------------------------

E|--17b19----17b19-17-------------------------------------------------------------------------------
B|--------------------15\12-12\10-10v---9--10-12-13-12-10-15-12-13-12-10-9--10-15-12-13-12-10-9--10-
G|--------------------------------------------------------------------------------------------------
D|--------------------------------------------------------------------------------------------------
A|--------------------------------------------------------------------------------------------------
E|--------------------------------------------------------------------------------------------------

E|-----------------------------------------------------------------------------------------
B|--12-10-8-----8--------------------------------------------------------------------------
G|-----------11----11-9--7--9--11-9--7-----7-----------------------------------------------
D|--------------------------------------10----10-9--7--9--10-9--7-----7--------------------
A|-----------------------------------------------------------------10----10-8--7--8--7v----
E|-----------------------------------------------------------------------------------------

E|--------------------------------------------3--2--3--2--0--
B|-----------------------------------------5-----------------
G|-----------------------2--2-----------2--------------------
D|-----------------5--2--------5-----5-----------------------
A|--5--2--2--2--2--------------------------------------------
E|-----------------------------------------------------------

E|--5--3--0--0--7--5--0--0--8--7--0--0--10-8--0--0--12-11-0--0--15-14-0--0--17-15-0--0--19-17-0--0--
B|--------------------------------------------------------------------------------------------------
G|--------------------------------------------------------------------------------------------------
D|--------------------------------------------------------------------------------------------------
A|--------------------------------------------------------------------------------------------------
E|--------------------------------------------------------------------------------------------------

E|--15----15b17r15----------------------------------------------------------------------
B|--------------------15\10-11-10-8-----10--8h10p8-----------------10-11-10-------------
G|--------------------------------------------------10-12----10-12----------12-10-12----
D|--------------------------------------------------------------------------------------
A|--------------------------------------------------------------------------------------
E|--------------------------------------------------------------------------------------

E|--10h13p10----------------------------------------------10h11p10-------------------------------
B|--------------------10h11p10----------10h13p10----------------------------11h13p11-------------
G|-----------12-10-12----------12-10-12-------------10-12----------12-10-12----------12-10-------
D|-----------------------------------------------12----------------------------------------12-10-
A|-----------------------------------------------------------------------------------------------
E|-----------------------------------------------------------------------------------------------

E|--------------------------------18-17-15b15----17b17----18b18----22v---
B|--------------------------15\---------18b20----20b22----21b23----------
G|--------------------14\------------------------------------------------
D|--------------12\------------------------------------------------------
A|--10\----12\-----------------------------------------------------------
E|-----------------------------------------------------------------------

E|--------------------------------------------------------------------------------------------------
B|--6--6--6--6--6--6--6--6--6--6--6--6--6--6--6--6--8--8--8--8--8--8--6--6--6--6--6--6--3--3--3--3--
G|--------------------------------------------------------------------------------------------------
D|--------------------------------------------------------------------------------------------------
A|--------------------------------------------------------------------------------------------------
E|--------------------------------------------------------------------------------------------------

E|--------------------------------------10h12-0--12h13-0--10h12-0--12h13-0--10h12-
B|--6--6--6--6--5--5--5--5--5--5--5--5--------------------------------------------
G|--------------------------------------------------------------------------------
D|--------------------------------------------------------------------------------
A|--------------------------------------------------------------------------------
E|--------------------------------------------------------------------------------

E|--13-13-13-13-13-13-13-13-13-13-13-13-13-13-13-13-15-15-15-15-15-15-13-13-13-13-13-13-17-17-17-17-
B|--------------------------------------------------------------------------------------------------
G|--------------------------------------------------------------------------------------------------
D|--------------------------------------------------------------------------------------------------
A|--------------------------------------------------------------------------------------------------
E|--------------------------------------------------------------------------------------------------

E|--19-19-19-19-19-19-19-19-19v---
B|--------------------------------
G|--------------------------------
D|--------------------------------
A|--------------------------------
E|--------------------------------


Use manual mode to free up cursor. Paste any tab in acousterr tab maker and we'll play it !!!
tabs and chords, guitar tabs, music transcription, music technology, deep learning, music information retrieval, transcribe into tabs & chords, chordify, music renditions, songsterr, reverbnation, tabulature, bollywood chords, ultimate guitar, yousician, guitar lessons, acoustic guitar, electric guitar, guitar tuner, 911 tabs