Guitar Tabs for Dragon

(/) Slide Up  (\) Slide Down  (h) Hammer On  (p) Pull Off  (b) Bend (r) Release (v) Vibrato (x) Muted

Tabs for Song : 

Riff 1 (intro) X2
E|--------------------------------------------------------------------------
B|--------------------------------------------------------------------------
G|--------------------------------------------------------------------------
D|--------3-----------------3--------2--------3-----------------3--------2--
A|-----------5--3--0-----------5--3--------------5--3--0-----------5--3-----
E|--0--0--------------0--0--------------0--0--------------0--0--------------

E|--------------------------------------------------------------------------------
B|--------------------------------------------------------------------------------
G|--------------------------------------------------------------------------------
D|--------3-----------------3--------2--------3-----------3-----------3-----------
A|-----------5--3--0-----------5--3--------------5--3--0-----5--3--0-----5--3--0--
E|--0--0--------------0--0--------------0--0--------------------------------------



Verse 1 X4
E|--------------------------------------------------------------------------------------------------
B|--------------------------------------------------------------------------------------------------
G|-----------------------------------------------2-----------------------5--------------------------
D|-----------------------3--------------------------------------------------------------------------
A|--------------------------0--0--0--0--0--0--0-----3--3--3--3--3--3--3-----5--5--5--5--5--5--5--3--
E|--1--1--1--1--1--1--1-----------------------------------------------------------------------------


Riff 1 X2
E|--------------------------------------------------------------------------
B|--------------------------------------------------------------------------
G|--------------------------------------------------------------------------
D|--------3-----------------3--------2--------3-----------------3--------2--
A|-----------5--3--0-----------5--3--------------5--3--0-----------5--3-----
E|--0--0--------------0--0--------------0--0--------------0--0--------------

E|--------------------------------------------------------------------------------
B|--------------------------------------------------------------------------------
G|--------------------------------------------------------------------------------
D|--------3-----------------3--------2--------3-----------3-----------3-----------
A|-----------5--3--0-----------5--3--------------5--3--0-----5--3--0-----5--3--0--
E|--0--0--------------0--0--------------0--0--------------------------------------


Verse #2 X2
E|--------------------------------------------------------------------------------------------------
B|--------------------------------------------------------------------------------------------------
G|-----------------------------------------------2-----------------------5--------------------------
D|-----------------------3--------------------------------------------------------------------------
A|--------------------------0--0--0--0--0--0--0-----3--3--3--3--3--3--3-----5--5--5--5--5--5--5--3--
E|--1--1--1--1--1--1--1-----------------------------------------------------------------------------


Riff #2



E|--------------------------------------------------------------------------------
B|--------------------------------------------------------------------------------
G|--------------------------------------------------------------------------------
D|--------------------------------------------------------------------------------
A|--------------------------------------------------------------------------------
E|--0--0--13-13-13-12-0--0--15-15-17-12-0--0--13-13-13-12-15-15-15-12-13-13-13-12-


E|--------------------------------------------------------------------------
B|--------------------------------------------------------------------------
G|--------------------------------------------------------------------------
D|--------------------------------------------------------------------------
A|--------------------------------------------------------1--3--0--1--3--0--
E|--0--0--3--3--3--3--0--0--1--1--1--1--0--0--3--3--3--3--------------------

E|--------------------------------------------------------------------------
B|--------------------------------------------------------------------------
G|--------------------------------------------------------------------------
D|--------------------------------------------------------------------------
A|--------------------------------------------------------------------------
E|--0--0--3--3--3--3--0--0--1--1--1--1--0--0--3--3--3--3--15-17-12-15-17-13-

E|-----
B|-----
G|-----
D|-----
A|-----
E|--0--



Paste any tab in acousterr's tab maker and we'll play it !!!
Now supports capo and sound effects for vibrato/pull-off/hammer/bends/mutes etc !!! Checkout help section
tabs and chords, guitar tabs, music transcription, music technology, deep learning, music information retrieval, transcribe into tabs & chords, chordify, music renditions, songsterr, reverbnation, tabulature, bollywood chords, ultimate guitar, yousician, guitar lessons, acoustic guitar, electric guitar, guitar tuner, 911 tabs