Guitar Tabs for Dou Viva A Deus Nas Alturas Nivel 2

(/) Slide Up  (\) Slide Down  (h) Hammer On  (p) Pull Off  (b) Bend (r) Release (v) Vibrato (x) Muted

Tabs for Song : 

Dou viva a Deus nas Alturas e a Virgem Mãe nosso amor
E|--------0-----------------3--------1-----------------0--------0-----------------3--------1-----------------0--
B|--------1-----------------0--------1-----------------1--------1-----------------0--------1-----------------1--
G|--------0--------------0--0-----2--2--0--------------0--------0--------------0--0-----2--2--0--------------0--
D|--------2-----------2-----0--3-----3-----3-----------2--------2-----------2-----0--3-----3-----3-----------2--
A|-----3--3--3--3--3--------2-----------------0--2--3--3-----3--3--3--3--3--------2-----------------0--2--3--3--
E|--3-----------------------3-----------------------------3-----------------------3-----------------------------

Viva todo ser divino e Jesus Cristo Redentor
E|--0-----------------------1--------3-----------------0--0-----------------------1--------3--------------------
B|--1-----------------------3--------0-----------------1--1-----------------------3--------0-----------------1--
G|--0-----------------------2-----0--0--0--------------0--0-----------------------2-----0--0--0-----------------
D|--2--------------------0--0--0-----0-----3-----------2--2--------------------0--0--0-----0-----3-----------2--
A|--3--3--2--0--3--2--0--------------2--------0--2--3--3--3--3--2--0--3--2--0--------------2--------0--2--3--3--
E|-----------------------------------3-----------------------------------------------------3--------------------

tabs and chords, guitar tabs, music transcription, music technology, deep learning, music information retrieval, transcribe into tabs & chords, chordify, music renditions, songsterr, reverbnation, tabulature, bollywood chords, ultimate guitar, yousician, guitar lessons, acoustic guitar, electric guitar, guitar tuner, 911 tabs