Guitar Tabs for Dou Viva A Deus Nas Alturas

Dou viva a Deus nas alturas e a Virgem Mãe nosso amor

E|-----------------------------------------------------------------------------------------------------------------
B|-----------------------------------------------------------------------------------------------------------------
G|-----------------------0--0-----2-----0--------------------------------------0--0-----2-----0--------------------
D|--------------------2--------3-----------3--------------------------------2--------3-----------3-----------------
A|-----3-----3--3--3--------------------------0--2--3--------3-----3--3--3--------------------------0--2--3--------
E|--3-----------------------------------------------------3--------------------------------------------------------

Viva todo ser divino e Jesus Cristo Redentor

E|-----------------------------------------------------------------------------------------------------------
B|-----------------------------------------------------------------------------------------------------------
G|-----------------------------0-----0-----------------------------------------------0-----0-----------------
D|--------------------0--0--0-----------3-----------------------------------0--0--0-----------3--------------
A|--3--2--0--3--2--0-----------------------0--2--3--------3--2--0--3--2--0-----------------------0--2--3-----
E|-----------------------------------------------------------------------------------------------------------
tabs and chords, guitar tabs, music contests, music covers, songsterr, reverbnation, renditions, tabulature, bollywood chords, ultimate guitar, yousician, guitar lessons, torrins, fender, gibson, acoustic guitar, electric guitar, youtube covers, gootar, guitar tuner, A-Z tabs, 911 tabs