Guitar Tabs for Dou Viva

((/) Slide Up  (\) Slide Down  (h) Hammer On  (p) Pull Off  (b) Bend (r) Release (v) Vibrato (x) Muted

Tabs for Song : 

Song lyrics here
E|--------------------------------------------------------
B|--------------------------------------------------------
G|-----------------------0--0-----2-----0-----------------
D|--------------------2--------3-----------3--------------
A|-----3-----3--3--3--------------------------0--2--3-----
E|--3-----------------------------------------------------

Song lyrics here
E|--------------------------------------------------
B|--------------------------------------------------
G|-----------------------------0-----0--------------
D|--------------------0--0--0-----------3-----------
A|--3--2--0--3--2--0-----------------------0--2--3--
E|--------------------------------------------------
tabs and chords, guitar tabs, music transcription, music technology, deep learning, music information retrieval, transcribe into tabs & chords, chordify, music renditions, songsterr, reverbnation, tabulature, bollywood chords, ultimate guitar, yousician, guitar lessons, acoustic guitar, electric guitar, guitar tuner, 911 tabs