Guitar Tabs for Dango Daikazoku

(/) Slide Up  (\) Slide Down  (h) Hammer On  (p) Pull Off  (b) Bend (r) Release (v) Vibrato (x) Muted

Tabs for Song : 
BPM : 200

Song lyrics here 
E|--------0-----0-----2-----2-----4-----0-----------------0-----0-----2--2--0-----------------
B|--2--0--------------------------------------0-----2--0--------------------------------------
G|--------------------------------------------------------------------------------------------
D|--------------------------------------------------------------------------------------------
A|--------------------------------------------------------------------------------------------
E|--------------------------------------------------------------------------------------------

E|--------0-----0-----2-----2-----4-----0-----------------0-----0-----2-----2-----4-----2-----------
B|--2--0--------------------------------------0-----2--0--------------------------------------------
G|--------------------------------------------------------------------------------------1-----------
D|--------------------------------------------------------------------------------------------------
A|--0-----------4-----------------------4-----------0-----------4-----------------------------------
E|--------------------------4-----------------------------------------------4-----------------------

E|--------0-----0-----2-----2-----4-----0-----------------0-----0-----2-----0-----------------------
B|--2--0--------------------------------------0-----2--0--------------------0-----------0-----------
G|--------------------------------------------------------------------------------------1-----------
D|--------------------------------------------------------------------------------2-----------------
A|--0-----------4-----------------------4-----------0-----------4-----------------------------------
E|--------------------------4-----------------------------------------------0-----------------------

Song lyrics here 
E|--5--4--0--------0--2-----0-----------------0-----5--4--0--------0--2-----0-----------------0-----
B|-----------2-----------2--0-----0-----2--------------------2-----------2--0-----0-----2-----------
G|--------------------------------------1-----------------------------------------------1-----------
D|--0-----------4-----------------------2-----------0-----------4-----------------------2-----------
A|--------------------------0-----------------------------------------------0-----------------------
E|--------------------------------------------------------------------------------------------------

E|--5--4--0--------0--2-----0-----------------0--------------0-----------------------------
B|-----------2-----------2--0-----0-----2-----------0--------------------------------------
G|--------------------------------------1-----------------------2--------2--4--2--4--2-----
D|--0-----------4-----------------------2-----------------------------------------------4--
A|--------------------------0-----------------------4-----------------------------------2--
E|-----------------------------------------------------------------------------------------

E|-----0--2--2-----0--------0--2--4--7-----4-----0-----0--2--2-----0--------2--0--7--4--------------
B|-----------2--------2-----------------7--------0--0--------2--------2--------------5--------------
G|--4-----------------------------------------------------------------------------------------------
D|-----------------------------------------------------------------------------------------4--------
A|-----------0-----------------------------------------------0-----------------------4-----2--------
E|-----------------------------------0--------------------------------------------------------------

E|-----0--2--2-----0--------0--2--4--7-----4-----0-----------------------------0--------0---------
B|-----------2--------2-----------------7--------0-----4-----2-----2-----4--------4-----0--------
G|--4--------------------------------------------------------2-----2-----4-----------------------
D|--------------------------------------------------------------------------------------------4--
A|-----------0-----------------------------------------------------0-----2--------------------2--
E|-----------------------------------0-----------------------2-----------------------0-----------

E|-----0--2--2-----0--------0--2--4--7-----4-----0-----0--2--2-----0--------2--0--7--4--------------
B|-----------2--------2-----------------7--------0--0--------2--------2--------------5--------------
G|--4-----------------------------------------------------------------------------------------------
D|-----------------------------------------------------------------------------------------4--------
A|-----------0-----------------------------------------------0-----------------------4-----2--------
E|-----------------------------------0--------------------------------------------------------------

E|-----0--2--2-----0--------0--2--4--7-----4-----0-----------------------------0--------0--
B|-----------2--------2-----------------7--------0-----4-----2-----2-----4--------4-----0--
G|--4--------------------------------------------------------2-----2-----4-----------------
D|-----------------------------------------------------------------------------------------
A|-----------0-----------------------------------------------------------2-----------------
E|-----------------------------------0-----------------------2-----0-----------------0-----

Use manual mode to free up cursor. Paste any tab in acousterr tab maker and we'll play it !!!
tabs and chords, guitar tabs, music transcription, music technology, deep learning, music information retrieval, transcribe into tabs & chords, chordify, music renditions, songsterr, reverbnation, tabulature, bollywood chords, ultimate guitar, yousician, guitar lessons, acoustic guitar, electric guitar, guitar tuner, 911 tabs