Guitar Tabs for Domination

(/) Slide Up  (\) Slide Down  (h) Hammer On  (p) Pull Off  (b) Bend (r) Release (v) Vibrato (x) Muted

Tabs for Song : 

Play twice
E|--------------------------------------------------------------------------------------------
B|--------------------------------------------------------------------------------------------
G|--------------------------------------------------------------------------------------------
D|--------------------------------------3--0--3--------------------------------------3--0--3--
A|--5--8--5-----------5--8--5-----------3--0--3--5--8--5-----------5--8--5-----------3--0--3--
D|-----------7--6--5-----------7--6--5--3--0--3-----------7--6--5-----------7--6--5--3--0--3--
-----------------------
E|--------------------------------------------------10----------
B|-----------------------------------------8--6-----10----------
G|---------------------------7b-8r7--5-----------7--------------
D|--0-----------------------------------7-----------------------
A|--0-----------------------------------------------------------
D|--0-----------------------------------------------------------
---------------------
E|--------------------------------------------------------------------------------------
B|--------------------------------------------------------------------------------------
G|--------------------------------------------------------------------------------------
D|--0--------------------------------3--0--3-----7--------------------------------------
A|--0--------------------------------3--0--3-----7--------------7-----------7-----------
D|--0--0--0--0--0--0--0--0--0--0--0--3--0--3-----7--7--7--7--7--7--7--7--7--7--7--7--7--

E|--------------------------------------------------------------------------------
B|--------------------------------------------------------------------------------
G|--------------------------------------------------------14-14-14-14-14-14-14----
D|--3--------------------------------------0-----------------------------------0--
A|--3--------------------------------------0--------------12-12-12-12-12-12-12-0--
D|--3--3--3--3--3--3--3--3--3--3--3--3--3--0--0--0--0--0-----------------------0--

E|--------------------------------12----------------------15p12-------15p12-------15p12-15p12-17p12-17p12-
B|-----------------------------------15-12----------------------15p12-------15p12-------------------------
G|--------------------------14b16-------------------------------------------------------------------------
D|-----------------------------------------7--------------------------------------------------------------
A|-----------------------------------------7--0--0--0--0--------------------------------------------------
D|--0--0--0--0--0--0--0--0-----------------7--------------------------------------------------------------

E|--------------------------------------------------------------------------------------------
B|--------------------------------------------------------------------------------------------
G|--------------------------------------------------------14-14-14-14-14-14-14----------------
D|--3--------------------------------------0-----------------------------------0--------------
A|--3--------------------------------------0--------------12-12-12-12-12-12-12-0--------------
D|--3--3--3--3--3--3--3--3--3--3--3--3--3--0--0--0--0--0-----------------------0--------------

E|--------------------------
B|---8p5--------------6--10-
G|--------7--6-----5--------
D|--------------7-----------
A|--------------------------
D|--------------------------
Play Twice, Last past = alt. ending
E|--------------------------------------------------------------------
B|--------------------------------------------------------------------
G|--10-10-10-10-10-10-10-10-10-10-10-5--5--5--5--5--------------------
D|--------------------------------------------------5--5--5--5--5--5--
A|--8--8--8--8--8--8--8--8--8--8--8--3--3--3--3--3--5--5--5--5--5--5--
D|--------------------------------------------------5--5--5--5--5--5--

E|-----------------------------------------------------------------------
B|-----------------------------------------------------------------------
G|--3--3--3--3--3--3--3--3--3--3--3--5--5--5--5--5-----------------------
D|--------------------------------------------------5--5--5--5--5--5-----
A|--1--1--1--1--1--1--1--1--1--1--1--3--3--3--3--3--5--5--5--5--5--5-----
D|--------------------------------------------------5--5--5--5--5--5-----

E|--------------------------------------------------x--------------------
B|--------------------------------------------------x--10----10----10-10-
G|--3--3--3--3--3--3--3--3--3--3--3--5--5--5--5--5--x--------------------
D|--------------------------------------------------x--7-----7-----7--7--
A|--1--1--1--1--1--1--1--1--1--1--1--3--3--3--3--3--x--------------------
D|--------------------------------------------------x--------------------

E|--------------
B|--------------
G|--------------
D|--3--3--3--3--
A|--3--3--3--3--
D|--3--3--3--3--
-----------------------------
E|--------------------------------------------------------------------------------------------------
B|--------------------------------------------------------------------------------------------------
G|-----------10-10-10----------10-10-10-------10-10----------10-10-10----------10-10-10-------10-10-
D|--5--5--5-----------5--5--5-----------5--5--------5--5--5-----------5--5--5-----------5--5--------
A|--5--5--5--8--8--8--5--5--5--8--8--8--5--5--8--8--5--5--5--8--8--8--5--5--5--8--8--8--5--5--8--8--
D|--5--5--5-----------5--5--5-----------5--5--------5--5--5-----------5--5--5-----------5--5--------

E|--------------------------------------------------------------
B|--------------------------------------------------------------
G|-----------5--7--5--------5--5-----------5--7--5--------5--5--
D|--3--3--3-----------3--3--------3--3--3-----------3--3--------
A|--3--3--3--3--5--3--3--3--3--3--3--3--3--3--5--3--3--3--3--3--
D|--3--3--3-----------3--3--------3--3--3-----------3--3--------

E|-----------------------------------------------------------------------------------------------
B|-----------------------------------------------------------------------------------------------
G|-----------------------------------------------------------------------------------------------
D|-----------------------------------------------------------------------------------------------
A|-----------5-----3-----------5-----3--------------------------5-----3---5h6--6--6--6--5--3--5--
D|--0--0--0-----0-----0--0--0-----0-----0--0--5--0-----0--0--0-----0-----------------------------
(2x)
E|--------------------------------------------------------------------------------------------------
B|--------------------------------------------------------------------------------------------------
G|--------------------------------------------------------------------------------------------------
D|-----------5-----3--------------5-----3-----------1--------------5-----3--------------------------
A|-----------5-----3--------------5-----3-----------1--------------5-----3---5h6--6--6--6--5--3--5--
D|--0--0--0--5-----3-----0--0--0--5-----3-----0--0--1--0--0--0--0--5-----3---5h6--6--6--6--5--3--5--

E|-----
B|-----
G|-----
D|--0--
A|--0--
D|--0--
SOLO
E|-----------------------------------------------------------------------------------
B|--10-8--7--8--7-----------10-8--7--8--7-----------10-8--7--8--12-10-8--10-15----14-
G|-----------------9--7--9-----------------9--7--9-----------------------------------
D|-----------------------------------------------------------------------------------
A|-----------------------------------------------------------------------------------
D|-----------------------------------------------------------------------------------

E|--12-10-9--10-9--7--9--7-----7-----------------------------------------------
B|--------------------------10----10-8--10-8--7--8--7-----7--8--7--8--12----10-
G|-----------------------------------------------------9-----------------------
D|-----------------------------------------------------------------------------
A|-----------------------------------------------------------------------------
D|-----------------------------------------------------------------------------

E|--15-14h15p14p12h14p12----------14-------14-------14-------------------
B|-----------------------14-14b16----14b16----14b16----14p12----12-------
G|-----------------------------------------------------------13-------13-
D|-----------------------------------------------------------------------
A|-----------------------------------------------------------------------
D|-----------------------------------------------------------------------

E|--15p14-15p14--9p7---9p7-----------------
B|---------------------------9p7---9p7--12-
G|-----------------------------------------
D|-----------------------------------------
A|-----------------------------------------
D|-----------------------------------------

E|--14h15p14p12h14-15h17p15p14h15/17b19----17b19-17b19-
B|-----------------------------------------------------
G|-----------------------------------------------------
D|-----------------------------------------------------
A|-----------------------------------------------------
D|-----------------------------------------------------
Then chorus again, then intro again, then ending muted:
E|--------------------------------------------------
B|--------------------------------------------------
G|--------------------------------------------------
D|--------------------------------------------------
A|--6--5--3--6--5--3--6--5--3--6--5--3--6--3--5--5--
D|--6--5--3--6--5--3--6--5--3--6--5--3--6--3--5--5--




Song lyrics here


Paste any tab in acousterr's tab maker and we'll play it !!!
Now supports capo and sound effects for vibrato/pull-off/hammer/bends/mutes etc !!! Checkout help section
tabs and chords, guitar tabs, music transcription, music technology, deep learning, music information retrieval, transcribe into tabs & chords, chordify, music renditions, songsterr, reverbnation, tabulature, bollywood chords, ultimate guitar, yousician, guitar lessons, acoustic guitar, electric guitar, guitar tuner, 911 tabs