Guitar Tabs for Dil Kya Kare - Julie Tabs

(/) Slide Up  (\) Slide Down  (h) Hammer On  (p) Pull Off  (b) Bend (r) Release (v) Vibrato

Tabs for Song : Dil Kya Kare

Dil kya kare jab kisi ko
E|--------------------------------
B|--------0--1-----0-----0--3-----
G|-----2--------------2-----------
D|--2-----------------------------
A|--------------------------------
E|--------------------------------

kisi se pyaar ho jaye
E|-----------------------------
B|-----1-----1-----3--1--------
G|--2-----2-----2--------2-----
D|-----------------------------
A|-----------------------------
E|-----------------------------

jane kaha kab kisi ko 
E|--------------------------------
B|--------0--1-----0-----0--3-----
G|-----2--------------2-----------
D|--2-----------------------------
A|--------------------------------
E|--------------------------------

kisi se pyar ho jaye
E|-----------------------------
B|-----1-----1-----3--1--------
G|--2-----2-----2--------2-----
D|-----------------------------
A|-----------------------------
E|-----------------------------

ho.. oonchi oonchi dewaron si
E|--0-----0-----0-----0--0-----0--------------------
B|-----------3--------------3-----3--3--3--1--------
G|--------------------------------------------3-----
D|--------------------------------------------------
A|--------------------------------------------------
E|--------------------------------------------------

is duniya ki rasme
E|--------------0--------------------
B|--------3--3-----3--1--1--1--1-----
G|--3--------------------------------
D|-----------------------------------
A|-----------------------------------
E|-----------------------------------

na kuch mere bas mein juli
E|--0-----0-----0-----0--0-----0-----------------
B|-----------3--------------3-----3--3--1--------
G|-----------------------------------------3-----
D|-----------------------------------------------
A|-----------------------------------------------
E|-----------------------------------------------

na kuch tere bas mein
E|--------------0-----------------
B|-----3--3--3-----3--1--1--1-----
G|--3-----------------------------
D|--------------------------------
A|--------------------------------
E|--------------------------------

Add more lines by placing cursor below and adding notes
tabs and chords, guitar tabs, music contests, music covers, songsterr, reverbnation, renditions, tabulature, bollywood chords, ultimate guitar, yousician, guitar lessons, torrins, fender, gibson, acoustic guitar, electric guitar, youtube covers, gootar, guitar tuner, A-Z tabs, 911 tabs