Guitar Tabs for Dil aajkal

Tabs for Song : Dil Aajkal Meri Sunta Nahi

dil aajkal meri sunta nahi

E|--------------------------------------------------------
B|-----------0---2h4-----1--0-----------------------------
G|--1-----3-----------------------3---3\4--3-----1--1-----
D|--------------------------------------------------------
A|--------------------------------------------------------
E|--------------------------------------------------------

dil aajkal paas rahta nahi

E|--------------------------------------------------------
B|-----------0---2h4-----1--0-----------------------------
G|--1-----3-----------------------3---3\4--3-----1--1-----
D|--------------------------------------------------------
A|--------------------------------------------------------
E|--------------------------------------------------------

ye tujhse hi milne ko chahe

E|------0h2--0------0h2--0-----------------
B|--4-----------4-----------4-----2--4-----
G|-----------------------------------------
D|-----------------------------------------
A|-----------------------------------------
E|-----------------------------------------

ye tri hi krta h baten

E|------0h2--0------0h2--0--------0-----------------
B|--4-----------4-----------4--2-----4--2--0--------
G|--------------------------------------------3-----
D|--------------------------------------------------
A|--------------------------------------------------
E|--------------------------------------------------

kya tum ho ,kya tum ho wahi

E|--------------------------------------------
B|------4\5--4-----4--2--4--2--4--2-----0-----
G|--1--------------------------------3--------
D|--------------------------------------------
A|--------------------------------------------
E|--------------------------------------------

kya tum ho kya tum ho wahi

E|--------------------------------------------
B|------4\5--4-----4--2--4--2--4--2-----0-----
G|--1--------------------------------3--------
D|--------------------------------------------
A|--------------------------------------------
E|--------------------------------------------

dil aaj kal

E|-----------------------
B|-----------0---2h4-----
G|--1--3-----------------
D|-----------------------
A|-----------------------
E|-----------------------


teri ankho ke raste ye chala jata hai

E|-----------------------------------------------
B|--0--0-----0--0--------0--------------0--------
G|--------3-----------3--------3--1--3-----------
D|-----------------------------------------------
A|-----------------------------------------------
E|-----------------------------------------------

jo bulau to kabhi laut 

E|-----------------------0-----------
B|-----0-----4--4-----4-----4--2-----
G|--3-----1--------------------------
D|-----------------------------------
A|-----------------------------------
E|-----------------------------------

aata nahi

E|-----------------------
B|---2h4--0--------0-----
G|--------------3--------
D|-----------------------
A|-----------------------
E|-----------------------

bekhabar yr zamaane se takrata hai

E|--------------------------------------------
B|--0--0-----0--0--------0--------------0-----
G|--------3-----------3--------3--1--3--------
D|--------------------------------------------
A|--------------------------------------------
E|--------------------------------------------

bedhadak mujhse kahta hai

E|-----------------------0-----------
B|-----0-----4--4-----4-----4--2-----
G|--3-----1--------------------------
D|-----------------------------------
A|-----------------------------------
E|-----------------------------------

mein hu unhi

E|-----2---0h2--0-----------
B|--2-----------------4-----
G|--------------------------
D|--------------------------
A|--------------------------
E|--------------------------

ye tujhse hi milke hua hai

E|------0h2--0------0h2--0-----------------
B|--4-----------4-----------4-----2--4-----
G|-----------------------------------------
D|-----------------------------------------
A|-----------------------------------------
E|-----------------------------------------

jo teri nazar ne sua hai

E|------0h2--0------0h2--0--------------0-----------------------
B|--4-----------4--------------4-----2-----4-----2--0-----------
G|--------------------------------------------------------3-----
D|--------------------------------------------------------------
A|--------------------------------------------------------------
E|--------------------------------------------------------------

kya tum ho kya tum ho wahi

E|--------------------------------------------
B|------4\5--4-----4--2--4--2--4--2--0--------
G|--1-----------------------------------3-----
D|--------------------------------------------
A|--------------------------------------------
E|--------------------------------------------

kya tum ho kya tum wahi

E|--------------------------------------------
B|------4\5--4-----4--2--4--2--4--2--0--------
G|--1-----------------------------------3-----
D|--------------------------------------------
A|--------------------------------------------
E|--------------------------------------------

dil aajkal meri sunta nahi

E|--------------------------------------------------------
B|--------------0---2h4-----1--0--------------------------
G|--1-----3--------------------------3---3\4--3--1--1-----
D|--------------------------------------------------------
A|--------------------------------------------------------
E|--------------------------------------------------------

dil aajkal

E|-----------------------
B|-----------0---2h4-----
G|--1--3-----------------
D|-----------------------
A|-----------------------
E|-----------------------

tabs and chords, guitar tabs, music transcription, music technology, deep learning, music information retrieval, transcribe into tabs & chords, chordify, music renditions, songsterr, reverbnation, tabulature, bollywood chords, ultimate guitar, yousician, guitar lessons, acoustic guitar, electric guitar, guitar tuner, 911 tabs