Bass Tabs for Different As Can Be (when I Rule The World) - A Very Potter Musical

{The intro to this song is just piano and vocals. This sheet is for the notes because in this notation, rythm 
is unreliable. The notes line up with the lyrics, and the spaces between the notes should not be counted. 
The lyrics just before this starts are "feeling lingers."}
"We're just about as different as a-ny-one can be,
G|-----------------------------------------------------------------------------------------------------------
D|-----------------------------------------------------------------------------------------------------------
A|--------------------------------------1--2--3--3-----------------------------------------------------------
E|-----------------------------------------------------------------------------------------------------------
 "You like plotting a garden, ...plotting to kill,"    "You... rule the world,      I... are a thrill!"
G|-----------------------------5-----5-----5-----5--------------------0-----0-----2--------------------------
D|-----3-----3-----3-----3-----------------------------2--3-----3-----------------------------------------0--
A|-----------------------------------------------------------------------------------------------------------
E|-----------------------------------------------------------------------------------------------------------
 "Sipping tea by the fire is swell,"   "...Fun as well! I like ...of my ties,"  "And you have no friends-"
G|-----0--------0--------------2--------2-----------------0--------0-----------------------------------------
D|-----------------2--------2--------------0--2-----4-----------------2-----2-----3--------------3-----------
A|-----------------------------------------------------------------------------------------------------------
E|-----------------------------------------------------------------------------------------------------------
    "Hey, that's a surprise."   "I guess it's plain to see;           when you look at you and me,"
G|-----------------------------------------------------------------------------------------------------------
D|--3-----------------3--------0-----------------------------0-----0--------------------------0--------------
A|--------3--------------------------------------------------------------------0--------4-----------3-----3--
E|-----------------------------------------------------------------------------------------------------------
"We're different, different,   as    can  be."                        "You're a... girl!" 
G|-----------------5--------------------------------------------------------------------------
D|-----------------------------1-----2-----3-----3-----3-----3--------3-----3-----3-----3-----
A|--------------------------------------------------------------3--3--------------------------
E|-----3--------------------------------------------------------------------------------------
 "I'm the darkest of lords," "I'm the bright...  here,   I've won several awards!" "My new world's... unfold"
G|-----------------------------------------0-----0-----2--------------------------------------0--------0-----
D|-----------------------0--2--3-----3-----------------------------------------------0--------------------2--
A|--3-----3-----3-----3--------------------------------------------------------------------------------------
E|-----------------------------------------------------------------------------------------------------------
     "You got beat by a two-year  old."  "I'll...  through," "or ...might just give him... tattoo,"
G|-----2-----------2-----------------------0-----------------------------------------------------------------
D|--2--------------------0--2-----4-----------------1--------3--------3--------3--------------3-----2-----0--
A|-----------------------------------------------------------------------------------3-----------------------
E|-----------------------------------------------------------------------------------------------------------
 "You really must agree,       when you look at you and me,          we're different, different, as can-"
G|--------------------------------------------------------------------------5-----------------------------
D|-----------------------------------------------------0--------------------------------------------------
A|-----------------------4-----4--------0--------4-----------3-----3--------------------------------------
E|--------------------------------------------------------------------3-----------------------------------
 "I'll rise again, and   I'll  rule the world.        But you must help me renew."
G|--4-----------------------------------------------1-----------------------------------------2--------------
D|-----------------------1--2--3-----------------4-----------------------------------------------0-----------
A|-----------------------------------------------------4--------------------4--------------------------4-----
E|-----------------------------------------------------------------------------------------------------------
 "For when our   plan succeeds -    Part... world goes to you" "When I rule the world, I'll plant flowers."
G|------------------------------------------------------9/11----------------------------------11/13/11/9-----
D|------------------2/3--4-----4--------------0--------------------------------------------------------------
A|-----------------------------------4-----------------------------------------------------------------------
E|-----------------------------------------------------------------------------------------------------------
                       "When I rule to world, I'll have      snakes.              and goblins and werewolves"
G|------------9/11/-9/8-----------------------------------7--------------13/14-2-----------------------------
D|--------------------------------------------------------------------------------0--------------------------
A|-----------------------------------------------------------------------------------------------------------
E|-----------------------------------------------------------------------------------------------------------
"a fleet of dementors and giants and thestrals and all my death eaters."
G|--------------------1--5--------------------------------------------------------------
D|--------------------------------------------------------------------------------------
A|-----------------------------------------------------------------------3--2--0--------
E|--------------------------------------------------------------------------------3--1--
      "When I rule      the       world!"   {Outro on A}
G|-----------------------------------------------------------------------------------------------------------
D|-----------------------------------------------------------------------------------------------------------
A|-----------------------------------------------------------------------------------------------------------
E|-----------------------1-----------------------------------------------------------------------------------
tabs and chords, guitar tabs, music transcription, music technology, deep learning, music information retrieval, transcribe into tabs & chords, chordify, music renditions, songsterr, reverbnation, tabulature, bollywood chords, ultimate guitar, yousician, guitar lessons, acoustic guitar, electric guitar, guitar tuner, 911 tabs