Bass Tabs for Different As Can Be - Very Potter Musical

Different as Can Be (Reprise) - Swinging 8ths kinda

  "When you look at   you and me,      we're     different,      different,  as can be."
G|--------------------6-----------7--------------------------5-----------5-----------------------
D|-----------7--------------------------------5-----------------------------------------3-----3--
A|-----------------------------------------------------------------------------------------------
E|-----------------------------------------------------------------------------------------------
                                        "We simply guarentee, when you look at    you & me,"
G|--------------------------------------------------------------------------------6-----7-----5--
D|--3--2--1--0-----0-----0-----0-----0-----------------------------------7-----------------------
A|-----------------------------------------------------------------------------------------------
E|-----------------------------------------------------------------------------------------------
   "We're different,       different, as can be.                         It's a comedy of sorts,"
G|-----------------------5-----------------------------------------------------------------5-----
D|--------5--------7-----------------------------3-----3-----3--2--1--0-----------5--------------
A|-----------------------------------------------------------------------------------------------
E|-----------------------------------------------------------------------------------------------
   "When you're bound to Voldemort."         "And I'm happy as a squirrel,"
G|-----------------------------------------------------------------5-----------
D|--------------3--------3--2--1--0--------------------5-----------------------
A|-----------------------------------------------------------------------------
E|--------------------------------------10/0-----------------------------------
   "Long as I'm with Mr. Quirrel." (to no particular note) "We'll lead him to the slaughter and"
G|---------------------------------------7/2--------------------------------------5--------------
D|-----------3-----------3--2--1--0--------------------------------5-----------------------------
A|-----------------------------------------------------------------------------------------------
E|-----------------------------------------------------------------------------------------------
   "We'll murder Harry Potter. We're different,"
G|-----------------------------------0-----0-----0-----0-----0-----0-----0-----0-----
D|--------3-----------0--------------------------------------------------------------
A|-----------------------------------------------------------------------------------
E|-----------------------------------------------------------------------------------
   "Different,                                    different, different, as can be."
G|--6-----6-----6-----------6-----6-----6-----6-----0--------6-----------6--6-----
D|--------------------7--------------7--------------------------------------------
A|--------------------------------------------------------------------------------
E|--------------------------------------------------------------------------------
  [Outro w/ piano}
G|--6-----6-----5-----5-----
D|-----------------------3--
A|--------------------------
E|--------------------------
tabs and chords, guitar tabs, music transcription, music technology, deep learning, music information retrieval, transcribe into tabs & chords, chordify, music renditions, songsterr, reverbnation, tabulature, bollywood chords, ultimate guitar, yousician, guitar lessons, acoustic guitar, electric guitar, guitar tuner, 911 tabs