Bass Tabs for Harry - A Very Potter Musical

Tabs for Song : Harry 

"C'mon Hermione."                                            Ginny: "The way his hair falls in his eyes"
G|--------------------------------------------------------------------------------------------------------
D|--------------------3-----------2-----------0--------------------2--3-----------2-----------0-----------
A|--------------------------------------------------------------------------------------------------------
E|--------------------------------------------------------------------------------------------------------
"Makes me wonder if he'll       ever see through  my  disguise. And I'm underneath his spell.  
G|--------------------------------------------------------------------------------------------------------
D|--------------------------3-----------2--------2--3--0-----------------------------------------2--3-----
A|-----------------------3--------------------------------------------------------------------------------
E|--------------------------------------------------------------------------------------------------------
"Everything is falling, and I don't know  where  to land.            Everyone knows who he is,"
G|--------------5--------------------------------0--2-----2--5---9/7--------------------------------------
D|-----------3-----------0--1--2--------------------------------------------------------------------------
A|--------------------------------------------------------------------------------------------------------
E|--------------------------------------------------------------------------------------------------------
   "But they don't know who I am.                  Haaaaaaaaaaaaaaaaaaaaaaaaaarry,"
G|-----------------------------------------------5--------------0--------0--------------5-----------5--5--
D|-----------1--------------------------------------------3--4-----------------3-----------3-----3--------
A|-----------------------------1--------------------------------------------------------------------------
E|--------------------------------------------------------------------------------------------------------
        "Haaaaaaaaaaaaaaaaaarry,                      why can't you see"
G|--5-----5--5--0--------0--------5-----------5--5--2-----2-----0-----0-----------------------------0-----
D|--------------------------3-----------3-----------------------------------4--------------0--4--4--------
A|--------------------------------------------------------------------------------------------------------
E|--------------------------------------------------------------------------------------------------------
   "What you're doin' to me?                           I've seen   con-  cer- debt,"
G|-----------------------------5-----5-----5--5--5--5--3-----3-----3-----3-----2-----
D|-----------------------------------------------------------------------------------
A|-----------------------------------------------------------------------------------
E|-----------------------------------------------------------------------------------
   "And even when you're just standing there, you take away my bbreeeeeaaaath,       and maybe."
G|-----2-----2-----2--2-----------------------------------------7-----5--------5--5--------5-----
D|-----------------------0-----------------------------------7--------------5--------------------
A|-----------------------------------------------------------------------------------------------
E|-----------------------------------------------------------------------------------------------
     "So- day- hear-    and under-  that all     along       there's something more that I'm trying to"
G|--3-----3-----3-----3-----0-----0--------0------0/2--0-----0-----------------------------------------3--
D|--------------------------------------0-----------------------------------------------------------------
A|--------------------------------------------------------------------------------------------------------
E|--------------------------------------------------------------------------------------------------------
  "saaaaaaaaaaaaaaaaaaaaaaaaAAAaaaAAAaaaaAy  I say   Haaaaaaaaarrryy,"
G|--2--2--2--2--2--2--2-----2--4--6--4--2-----2--2--------------------0-----0--------0--2-----4-----2--0--
D|-----------------------2-----------------2--------0-----------------------------0-----------------------
A|--------------------------------------------------------------------------------------------------------
E|--------------------------------------------------------------------------------------------------------
   "Haaaaaaaarrryyy,                              why      can't you see                            what"
G|--------------2--1--0-----------0-----0--2--4--------4--2--------2-----2-----------------------------
D|--------------------------0-----------------------------------------------2-----------2-----------2--
A|--------------------------------------------------------------------------------3--------------2-----
E|-----------------------------------------------------------------------------------------------------
    "you're doing to me?                              What you're doing to me?" (the last note is odd)
G|-----------------3--4-----4-----3-----2-----------------------------------------
D|---------2/7--------------------------------2--------------------------------4--
A|--------------------------------------------------0-----------------------------
E|--------------------------------------------------------------------------------
tabs and chords, guitar tabs, music transcription, music technology, deep learning, music information retrieval, transcribe into tabs & chords, chordify, music renditions, songsterr, reverbnation, tabulature, bollywood chords, ultimate guitar, yousician, guitar lessons, acoustic guitar, electric guitar, guitar tuner, 911 tabs