Guitar Tabs for Diatonic Major And Minor Scales

(/) Slide Up  (\) Slide Down  (h) Hammer On  (p) Pull Off  (b) Bend (r) Release (v) Vibrato

Tabs for Song : 

Song lyrics here
E|--------------------------------------5--7--8--7--5--------------------------------------
B|-----------------------------5--6--8-----------------8--6--5-----------------------------
G|-----------------2--4--5--7-----------------------------------7--5--4--2-----------------
D|--------2--3--5-----------------------------------------------------------5--3--2--------
A|--3--5-----------------------------------------------------------------------------5--3--
E|-----------------------------------------------------------------------------------------

E|-----------------------------------------------------10-12-14-15-16-15-14-12-10----------------------------------------------------
B|-----------------------------------------9--10-12-13----------------------------13-12-10-9-----------------------------------------
G|-----------------------------------9--11----------------------------------------------------11-9-----------------------------------
D|--------------------------9--10-12----------------------------------------------------------------12-10-9--------------------------
A|-----------5--7--9--11-12----------------------------------------------------------------------------------12-11-9--7--5-----------
E|--5--7--8-----------------------------------------------------------------------------------------------------------------8--7--5--

E|-----------------------------------------------4--6--7--9--11-13-14-13-11-9--7--6--4-----------------------------------------------
B|--------------------------------------4--5--7-----------------------------------------7--5--4--------------------------------------
G|--------------------------1--3--4--6-----------------------------------------------------------6--4--3--1--------------------------
D|-----------------1--2--4-----------------------------------------------------------------------------------4--2--1-----------------
A|--------1--2--4-----------------------------------------------------------------------------------------------------4--2--1--------
E|--3--5-----------------------------------------------------------------------------------------------------------------------5--3--


tabs and chords, guitar tabs, music transcription, music technology, deep learning, music information retrieval, transcribe into tabs & chords, chordify, music renditions, songsterr, reverbnation, tabulature, bollywood chords, ultimate guitar, yousician, guitar lessons, acoustic guitar, electric guitar, guitar tuner, 911 tabs