Guitar Tabs for D Major Scales

D MAJOR SCALES:

1)

E|-----------------------------------------------12-14-15----
B|--------------------------------------12-14-15-------------
G|-----------------------------11-12-14----------------------
D|--------------------11-12-14-------------------------------
A|-----------10-12-14----------------------------------------
E|--10-12-14-------------------------------------------------

2) 

E|-----------------------------------------------14-15-17----
B|--------------------------------------14-15-17-------------
G|-----------------------------12-14-16----------------------
D|--------------------12-14-16-------------------------------
A|-----------12-14-16----------------------------------------
E|--12-14-15-------------------------------------------------

3) 

E|-----------------------------------------------15-17-19----
B|--------------------------------------15-17-19-------------
G|-----------------------------14-16-18----------------------
D|--------------------14-16-17-------------------------------
A|-----------14-16-17----------------------------------------
E|--14-15-17-------------------------------------------------

4) 

E|-----------------------------------------------5--7--9-----
B|--------------------------------------5--7--8--------------
G|-----------------------------4--6--7-----------------------
D|--------------------4--5--7--------------------------------
A|-----------4--5--7-----------------------------------------
E|--3--5--7--------------------------------------------------

5) 

E|-----------------------------------------------7--9--10----
B|--------------------------------------7--8--10-------------
G|-----------------------------6--7--9-----------------------
D|--------------------5--7--9--------------------------------
A|-----------5--7--9-----------------------------------------
E|--5--7--9--------------------------------------------------

6)

E|-----------------------------------------------9--10-12----
B|--------------------------------------8--10-12-------------
G|-----------------------------7--9--11----------------------
D|--------------------7--9--11-------------------------------
A|-----------7--9--10----------------------------------------
E|--7--9--10-------------------------------------------------

7) 

E|-----------------------------------------------10-12-14----
B|--------------------------------------10-12-14-------------
G|-----------------------------9--11-12----------------------
D|--------------------9--11-12-------------------------------
A|-----------9--10-12----------------------------------------
E|--9--10-12-------------------------------------------------







tabs and chords, guitar tabs, music transcription, music technology, deep learning, music information retrieval, transcribe into tabs & chords, chordify, music renditions, songsterr, reverbnation, tabulature, bollywood chords, ultimate guitar, yousician, guitar lessons, acoustic guitar, electric guitar, guitar tuner, 911 tabs