Guitar Tabs for A Major Scales

A MAJOR SCALES:

1)


E|-----------------------------------------------7--9--10----
B|--------------------------------------7--9--10-------------
G|-----------------------------6--7--9-----------------------
D|--------------------6--7--9--------------------------------
A|-----------5--7--9-----------------------------------------
E|--5--7--9--------------------------------------------------

2)

E|-----------------------------------------------9--10-12----
B|--------------------------------------9--10-12-------------
G|-----------------------------7--9--11----------------------
D|--------------------7--9--11-------------------------------
A|-----------7--9--11----------------------------------------
E|--7--9--10-------------------------------------------------

3) 

E|-----------------------------------------------10-12-14----
B|--------------------------------------10-12-14-------------
G|-----------------------------9--11-13----------------------
D|--------------------9--11-12-------------------------------
A|-----------9--11-12----------------------------------------
E|--9--10-12-------------------------------------------------

4)

E|-----------------------------------------------12-14-16----
B|--------------------------------------12-14-15-------------
G|-----------------------------11-13-14----------------------
D|--------------------11-12-14-------------------------------
A|-----------11-12-14----------------------------------------
E|--10-12-14-------------------------------------------------

5)

E|-----------------------------------------------14-16-17----
B|--------------------------------------14-15-17-------------
G|-----------------------------13-14-16----------------------
D|--------------------12-14-16-------------------------------
A|-----------12-14-16----------------------------------------
E|--12-14-16-------------------------------------------------

6)

E|-----------------------------------------------4--5--7-----
B|--------------------------------------3--5--7--------------
G|-----------------------------2--4--6-----------------------
D|--------------------2--4--6--------------------------------
A|-----------2--4--5-----------------------------------------
E|--2--4--5--------------------------------------------------

7) 

E|-----------------------------------------------5--7--9-----
B|--------------------------------------5--7--9--------------
G|-----------------------------4--6--7-----------------------
D|--------------------4--6--7--------------------------------
A|-----------4--5--7-----------------------------------------
E|--4--5--7--------------------------------------------------

tabs and chords, guitar tabs, music transcription, music technology, deep learning, music information retrieval, transcribe into tabs & chords, chordify, music renditions, songsterr, reverbnation, tabulature, bollywood chords, ultimate guitar, yousician, guitar lessons, acoustic guitar, electric guitar, guitar tuner, 911 tabs