Guitar Tabs for Dhoom Machale

E|--------7--5-----7--5--7--------5--7--5-----------
B|--5-----------------------8-----------------8--6--
G|--------------------------------------------------
D|--------------------------------------------------
A|--------------------------------------------------
E|--------------------------------------------------


E|--------7--5-----7--5--7--------5--7--5--
B|--5-----------------------8--------------
G|-----------------------------------------
D|-----------------------------------------
A|-----------------------------------------
E|-----------------------------------------


E|-----------7--5-----7--5--7--------5--7--5-----------
B|-----5-----------------------8-----------------8--6--
G|-----------------------------------------------------
D|-----------------------------------------------------
A|-----------------------------------------------------
E|-----------------------------------------------------


E|--------------------------------------
B|--------5--6--8-----6--5--------6--5--
G|--7-----------------------7-----------
D|--------------------------------------
A|--------------------------------------
E|--------------------------------------
tabs and chords, guitar tabs, music transcription, music technology, deep learning, music information retrieval, transcribe into tabs & chords, chordify, music renditions, songsterr, reverbnation, tabulature, bollywood chords, ultimate guitar, yousician, guitar lessons, acoustic guitar, electric guitar, guitar tuner, 911 tabs