Ukulele Tabs for Dhire Dhire Se Ukulele

A|---7h8------8/10----8--7---5/7--5-----
E|--------------------------------------
C|--------------------------------------
G|--------------------------------------


A|---5h7------7/8-----7--5-----5--7--8--7-----
E|--------------------------8-----------------
C|--------------------------------------------
G|--------------------------------------------


A|-----------------------------------------------7--5--------
E|---7h8------7h-8p7-----5--5-----3--3---3/5-----------8-----
C|-----------------------------------------------------------
G|-----------------------------------------------------------


A|-----5---5/7--7--7--------------------
E|--8------------------7h-8p7--5--5-----
C|--------------------------------------
G|--------------------------------------


A|-----------------------------------------------------------------------------------------------------
E|--------------------3-----3--5--3--5--7--7--5--7---7/8------7h-8p7--5--5-----3--3---3/5--8--7--5-----
C|---5/7--7---7\5--5-----5-----------------------------------------------------------------------------
G|-----------------------------------------------------------------------------------------------------

Dhire dhire se meri jindagi me aana
A|-----------------------------------------------------------
E|--3--5---5/8--7--5--5--5--8--7--5-----5--7--8--7--5--3-----
C|-----------------------------------------------------------
G|-----------------------------------------------------------

Dhire dhire se mere dil ko churana
A|-----------------------------------------------
E|--3--5---5/8--7--5--5--5--8--7--5--5--5--5-----
C|-----------------------------------------------
G|-----------------------------------------------

Tum se pyar hame kitna hai jan-e-jana
A|--------------------------------------------------------
E|--3--5---5/8--7--5--5--5--8--7--5-----5--7--8--7--5--3--
C|--------------------------------------------------------
G|--------------------------------------------------------

Tumse milkar tumko hai batana
A|-----------------------------------------------
E|--3--5---5/8--7--5--5--5--8--7--5--5--5--5-----
C|-----------------------------------------------
G|-----------------------------------------------

Jabse tujhko dekha dil ko koyi aaram nahi
A|--7--5--------5--8--7--7-----5-----5--8--7--5--------------------
E|--------8-----------------------8--------------8---8/10-8--7--7--
C|-----------------------------------------------------------------
G|-----------------------------------------------------------------

filler
A|-----------------------------------
E|--7--8--10-8--7-----7-----7--8--7--
C|-----------------9-----9-----------
G|-----------------------------------

Mere hotho pe ek tere siwa koyi nam nahi
A|-----------------------------------------------------------------------
E|--10-8--7-----8--10-10----10-8--7-----8--10-10----8--7---7/8--7--5--5--
C|-----------------------------------------------------------------------
G|-----------------------------------------------------------------------

filler
A|-----------------------------------------
E|---3/5--5------7/8--7--5-----------------
C|---------------------------7/9---9\4-----
G|-----------------------------------------
tabs and chords, guitar tabs, music transcription, music technology, deep learning, music information retrieval, transcribe into tabs & chords, chordify, music renditions, songsterr, reverbnation, tabulature, bollywood chords, ultimate guitar, yousician, guitar lessons, acoustic guitar, electric guitar, guitar tuner, 911 tabs