Guitar Tabs for Fijate Bien

(/) Slide Up  (\) Slide Down  (h) Hammer On  (p) Pull Off  (b) Bend (r) Release (v) Vibrato (x) Muted

Tabs for Song : FIJATE BIEN - JUANES


STARTING SOLO
E|--x--x--x--x--x--x--x--7--x--7--x--7--------7--------7--------x-----------------2--2---5r2-----2--------------------
B|--x--x--x--x--x--x--x--7--x--7--x-----7--------7--------7-----x-----------2-----------------5---------------3/5--5--
G|--x--x--x--x--x--x--x--7--x--7--x--------7--------7--------7--x--------------2-----------------------2--4-----------
D|--x--x--x--x--x--x--x-----x-----x-----------------------------x---0h-2h4--------------------------4-----------------
A|--x--x--x--x--x--x--x-----x-----x-----------------------------x-----------------------------------------------------
E|--x--x--x--x--x--x--x-----x-----x-----------------------------x-----------------------------------------------------

E|-----------------------7--10--7\x--2--x--2--2--x--2--x--x--
B|---5/7--7v-7v-7v-7v-7v-7--7---7\x--2--x--2--2--x--2--x--x--
G|-----------------------7--7---7\x--2--x--2--2--x--2--x--x--
D|--------------------------------x-----x--------x-----x--x--
A|--------------------------------x-----x--------x-----x--x--
E|--------------------------------x-----x--------x-----x--x--


OUTRO SOLO
E|--------------------------0---1h2--2----2--2--2---2/-3\2--2--2---2/-3\2--2--2----2/-3\2--2--2--2--2---2r0-----------
B|--------------2--3--2--3-----------------------------------------------------------------------------------3--2--3--
G|-----4--3--4--------------------------------------------------------------------------------------------------------
D|--4-----------------------------------------------------------------------------------------------------------------
A|--------------------------------------------------------------------------------------------------------------------
E|--------------------------------------------------------------------------------------------------------------------

E|--2--2-----0-----------------------------------------0--------------------2--5--4--3--2--3--2---3/10-9--7--6--7--6--
B|--3--3--2-----2--------3--------2-----------------2-----2--2---2h3--0--3--------------------------------------------
G|------------------3/4------4\3-----3-----3-----3--------------------------------------------------------------------
D|--------------------------------------4-----4-----------------------------------------------------------------------
A|--------------------------------------------------------------------------------------------------------------------
E|--------------------------------------------------------------------------------------------------------------------

E|--3--2--3---3p2--0--------2--0-----------------------------------------------------------
B|--------------------3--2--------3--2--0-----2--0-----------------------------------------
G|-----------------------------------------3--------3--0-----------------------2--1--0-----
D|--------------------------------------------------------4--2---2r0--4--2--0-----------4--
A|-----------------------------------------------------------------------------------------
E|-----------------------------------------------------------------------------------------

E|--------------------------------------------------------------------------------------------------------
B|-----------2---2h3--2-----------2---3/5--5--5-----3--3---3p2--2--0--0--------------------2--2---2/3--3--
G|--4--4--4--------------4-----4--------------------------------------------3--3---3h4--4-----------------
D|--------------------------------------------------------------------------------------------------------
A|--------------------------------------------------------------------------------------------------------
E|--------------------------------------------------------------------------------------------------------

E|--------------------------------------2--------x-------
B|--3---3p2--3---3/5--5--------2v-------3--------x-----
G|--------------------------------3v----4--------x-----
D|--------------------------------------4--------x-----
A|--------------------------------------2--------x-----
E|--------------------------------------2--------x-----

Paste any tab in acousterr's tab maker and we'll play it !!!
Now supports capo and sound effects for vibrato/pull-off/hammer/bends/mutes etc !!! Checkout help section
tabs and chords, guitar tabs, music transcription, music technology, deep learning, music information retrieval, transcribe into tabs & chords, chordify, music renditions, songsterr, reverbnation, tabulature, bollywood chords, ultimate guitar, yousician, guitar lessons, acoustic guitar, electric guitar, guitar tuner, 911 tabs