Guitar Tabs for Test : Trucs Qui Sonnent Bien !

(/) Slide Up  (\) Slide Down  (h) Hammer On  (p) Pull Off  (b) Bend (r) Release (v) Vibrato (x) Muted

Tabs for Song : 

Song lyrics here
E|--------------------------------------------------------
B|--10-8--------------10-8--------------10-8--------------
G|--------9--9--9--9--------8--8--8--8--------7--7--7--7--
D|--------------------------------------------------------
A|--------------------------------------------------------
E|--------------------------------------------------------

E|--------------------------------------------------------
B|--10-8--------------10-8--------------10-8--------------
G|--------8--8--8--8--------9--9--9--9--------8--8--8--8--
D|--------------------------------------------------------
A|--------------------------------------------------------
E|--------------------------------------------------------

E|--------------------------------
B|--10-8--------------10-8--10b10v
G|--------7--7--7--7--------------
D|--------------------------------
A|--------------------------------
E|--------------------------------

Song lyrics here
E|-----11-------11-------11-------
B|--------13-------13-------13----
G|--12-------12-------12-------12-
D|--------------------------------
A|--------------------------------
E|--------------------------------

E|--11-------10-------10-------10-------10-------12-------12----------------------
B|-----13-------13-------13-------13-------13-------13-------13-------------------
G|--------12-------12-------12-------12-------14-------14----------7-----5--------
D|--------------------------------------------------------------5-----7-----5-----
A|--------------------------------------------------------------------------------
E|--------------------------------------------------------------------------------

Paste any tab in acousterr's tab maker and we'll play it !!!
Now supports capo and sound effects for vibrato/pull-off/hammer/bends/mutes etc !!! Checkout help section
tabs and chords, guitar tabs, music transcription, music technology, deep learning, music information retrieval, transcribe into tabs & chords, chordify, music renditions, songsterr, reverbnation, tabulature, bollywood chords, ultimate guitar, yousician, guitar lessons, acoustic guitar, electric guitar, guitar tuner, 911 tabs