Guitar Tabs for Clean Bandit - Baby Ft. Marina & Luis Fonsi (voice Line)

Clean Bandit - Baby ft. Marina & Luis Fonsi (Voice Line)

Verse

    Standing here in an empty room I saw you there and my blood ran cold
E|-----------------------------------------------------------------------
B|-----8--8--8--8-----8-----------6--6--6--6--6--------------------------
G|--5-----------------------------------------------7--7--7--7--7--5--5--
D|-----------------------------------------------------------------------
A|-----------------------------------------------------------------------
E|-----------------------------------------------------------------------

    Take me back to that long September don't know how I ever let you go
E|-----------------------------------------------------------------------
B|-----8--8--8--8-----8-----------6--6--6--6--6--------------------------
G|--5-----------------------------------------------7--7--7--7--7--5--5--
D|-----------------------------------------------------------------------
A|-----------------------------------------------------------------------
E|-----------------------------------------------------------------------

   I was young, didn't know 'bout love you were wild, couldn't get enough
E|----------------------10-----------------------------------10----------
B|--8--8-----8--8-----8----8--8-----8-----8------8--8-----8--------8--8--
G|----------------------------------------------------------------------
D|-----------------------------------------------------------------------
A|-----------------------------------------------------------------------
E|-----------------------------------------------------------------------

Gave my heart to another lover don't know how I ever let you go
E|-----------------------------------------------------------------------
B|-----8--8--8--8-----8-----------6--6--6--6--6--------------------------
G|--5-----------------------------------------------7--7--7--7--7--5--5--
D|-----------------------------------------------------------------------
A|-----------------------------------------------------------------------
E|-----------------------------------------------------------------------

Tension

Find me, in another place and time
E|--------------------------
B|--------------------------
G|--5-----8--7--5--7--------
D|-----5--------------9--5--
A|--------------------------
E|--------------------------

    If only,    if only you were mine
E|-----------------------------------
B|-----------------------------------
G|--7--8--5-----8--10-8---8/10-8--7--
D|-----------------------------------
A|-----------------------------------
E|-----------------------------------

    But I'm already someone else's baby
E|--------------------7-----------------
B|------6/8--8--8--8-----8--6--8--6--4--
G|--------------------------------------
D|--8-----------------------------------
A|--------------------------------------
E|--------------------------------------

Pre-Chorus

   Guess I had my last chance
E|--------------------------
B|-----------------8-----9--
G|--5--5--5-----5-----------
D|--------------------------
A|--------------------------
E|--------------------------

   And now this is our last dance
E|--------------------6--------
B|--------------------------8--
G|--7--7--7-----7--------------
D|-----------------------------
A|-----------------------------
E|-----------------------------

   You fell through the cracks in my hands
E|-----------------------------------------
B|--------------------------------8-----6--
G|--5-----5-----5-----5--5--5--------------
D|-----------------------------------------
A|-----------------------------------------
E|-----------------------------------------

Hard to say it's over
E|--------------------------
B|--6--4--------------------
G|--------7--5--5--7---5p4--
D|--------------------------
A|--------------------------
E|--------------------------

   But I'm already someone else's
E|-----------------------------
B|-----8--6--4-----6--4--------
G|--------------7--------7--5--
D|--5--------------------------
A|-----------------------------
E|-----------------------------

Chorus

    Baby,         ahh
E|--11-8-----10h11p10-8-----
B|-----------------------11-
G|--------------------------
D|--------------------------
A|--------------------------
E|--------------------------


Baby, ahh
E|--10----10h11-10-8--
B|-----11-------------
G|--------------------
D|--------------------
A|--------------------
E|--------------------

Baby, ahh
E|--11-8-----10h11p10-8--7--
B|--------------------------
G|--------------------------
D|--------------------------
A|--------------------------
E|--------------------------

   I'm already someone else's
E|--------------------------
B|--8--6--------6-----------
G|--------8--7-----8--7--5--
D|--------------------------
A|--------------------------
E|--------------------------

2nd Verse

All caught up in the way we were I feel your hands getting close to mine
E|-----------------------------------------------------------------------
B|-----8--8--8--8-----8-----------6--6--6--6--6--------------------------
G|--5-----------------------------------------------7--7--7--7--7--5--5--
D|-----------------------------------------------------------------------
A|-----------------------------------------------------------------------
E|-----------------------------------------------------------------------

Don't say the words that I love to hear the beat goes on and I close my eyes
E|-----------------------------------------------------------------------
B|-----8--8--8--8-----8-----------6--6--6--6--6--------------------------
G|--5-----------------------------------------------7--7--7--7--7--5--5--
D|-----------------------------------------------------------------------
A|-----------------------------------------------------------------------
E|-----------------------------------------------------------------------

I was young, didn't know 'bout love, you were wild, couldn't get enough
E|----------------------10-----------------------------------10----------
B|--8--8-----8--8-----8----8--8-----8-----8------8--8-----8--------8--8--
G|----------------------------------------------------------------------
D|-----------------------------------------------------------------------
A|-----------------------------------------------------------------------
E|-----------------------------------------------------------------------

Let's leave things the way they were you'll stay with me like a lullaby
E|-----------------------------------------------------------------------
B|-----8--8--8--8-----8-----------6--6--6--6--6--------------------------
G|--5-----------------------------------------------7--7--7--7--7--5--5--
D|-----------------------------------------------------------------------
A|-----------------------------------------------------------------------
E|-----------------------------------------------------------------------

2nd Tension

 Ey, sé que te gusto a ti todavía por mucho que digas
E|-----------------------------------------------------
B|-----------------------------------------------------
G|--5-----------------------5--4--4--4--4--4--4--5--7--
D|-----5--5--5--5--5--5--5-----------------------------
A|-----------------------------------------------------
E|-----------------------------------------------------

 Además puedo ver en tus ojos que no sólo quieres quedar como amigos
E|-----------------------------------------------------------------
B|-----------------------------------------------------------------
G|--5--5--5-----------------------5--3--3--3--3--3--5--7--10----8--
D|-----------5--5--5--5--5--5--5-----------------------------------
A|-----------------------------------------------------------------
E|-----------------------------------------------------------------

    Tienes mi corazón, eres mi obsesión soy tuyo pa' siempre
E|-----------------------------------------------------------
B|-----------------------------------------------------------
G|--8--8--8--8--7--10-8--8--8--8--7--10-8--8--8--8--8--7--10-
D|-----------------------------------------------------------
A|-----------------------------------------------------------
E|-----------------------------------------------------------

   Guess I had my last chance
E|--------------------------
B|-----------------8-----9--
G|--5--5--5-----5-----------
D|--------------------------
A|--------------------------
E|--------------------------

   And now this is our last dance
E|--------------------6--------
B|--------------------------8--
G|--7--7--7-----7--------------
D|-----------------------------
A|-----------------------------
E|-----------------------------

   You fell through the cracks in my hands
E|-----------------------------------------
B|--------------------------------8-----6--
G|--5-----5-----5-----5--5--5--------------
D|-----------------------------------------
A|-----------------------------------------
E|-----------------------------------------

Tell myself be stronger
E|--------------------------
B|--6--4--------------------
G|--------7--5--5--7---5p4--
D|--------------------------
A|--------------------------
E|--------------------------

My heart's like a rubber band
E|--------------------------
B|--------------------------
G|------8p-7h-8/10-8--10/12-
D|--5-----------------------
A|--------------------------
E|--------------------------

And it's such a shame
E|-----------6--6--4--
B|--4--4--4-----------
G|--------------------
D|--------------------
A|--------------------
E|--------------------

  You'll always be the one who got away
E|---------------------------3h4--3--
B|--3--3--3--3--3--3--3--3-----------
G|-----------------------------------
D|-----------------------------------
A|-----------------------------------
E|-----------------------------------

  We both know that deep down you feel the same
E|--------------------------------------------
B|------------------------------6/8--8--8--6--
G|--3--5--5-----5-----5--5--5-----------------
D|--------------------------------------------
A|--------------------------------------------
E|--------------------------------------------

Hard to say it's over
E|--------------------------
B|--6--4--------------------
G|--------7--5--5--7---5p4--
D|--------------------------
A|--------------------------
E|--------------------------

  But I'm already someone else's
E|--------------------------
B|--8--6--------6-----------
G|--------8--7-----8--7--5--
D|--------------------------
A|--------------------------
E|--------------------------

Chorus

    Baby,         ahh
E|--11-8-----10h11p10-8-----
B|-----------------------11-
G|--------------------------
D|--------------------------
A|--------------------------
E|--------------------------


Baby, ahh
E|--10----10h11-10-8--
B|-----11-------------
G|--------------------
D|--------------------
A|--------------------
E|--------------------

Baby, ahh
E|--11-8-----10h11p10-8--7--
B|--------------------------
G|--------------------------
D|--------------------------
A|--------------------------
E|--------------------------

   I'm already someone else's
E|--------------------------
B|--8--6--------6-----------
G|--------8--7-----8--7--5--
D|--------------------------
A|--------------------------
E|--------------------------

Bridge

Wish I met you at another place and time
E|--6--6--6--8--6--8---8/10-8--6--6--
B|-----------------------------------
G|-----------------------------------
D|-----------------------------------
A|-----------------------------------
E|-----------------------------------

If only, if only you were mine
E|-----------------------------
B|--8--8--8--8--8--9--8--------
G|-----------------------5--5--
D|-----------------------------
A|-----------------------------
E|-----------------------------

This love story ends for you and I

E|-----------------------------
B|--6--6--6--4--4--------------
G|-----------------7--5--4--4--
D|-----------------------------
A|-----------------------------
E|-----------------------------

'Cause I'm already someone else's
E|-----------------------------
B|-----8--6--------6-----------
G|-----------8--7-----8--7--5--
D|--5--------------------------
A|-----------------------------
E|-----------------------------

Chorus

    Baby,         ahh
E|--11-8-----10h11p10-8-----
B|-----------------------11-
G|--------------------------
D|--------------------------
A|--------------------------
E|--------------------------


Baby, ahh
E|--10----10h11-10-8--
B|-----11-------------
G|--------------------
D|--------------------
A|--------------------
E|--------------------

Baby, ahh
E|--11-8-----10h11p10-8--7--
B|--------------------------
G|--------------------------
D|--------------------------
A|--------------------------
E|--------------------------

   I'm already someone else's
E|--------------------------
B|--8--6--------6-----------
G|--------8--7-----8--7--5--
D|--------------------------
A|--------------------------
E|--------------------------

    Baby,         ahh
E|--11-8-----10h11p10-8-----
B|-----------------------11-
G|--------------------------
D|--------------------------
A|--------------------------
E|--------------------------

Baby, ahh
E|--10----10h11-10-8--
B|-----11-------------
G|--------------------
D|--------------------
A|--------------------
E|--------------------

Baby, ahh
E|--11-8-----10h11p10-8--7--
B|--------------------------
G|--------------------------
D|--------------------------
A|--------------------------
E|--------------------------

   I'm already someone else's
E|--------------------------
B|--8--6--------6-----------
G|--------8--7-----8--7--5--
D|--------------------------
A|--------------------------
E|--------------------------
tabs and chords, guitar tabs, music transcription, music technology, deep learning, music information retrieval, transcribe into tabs & chords, chordify, music renditions, songsterr, reverbnation, tabulature, bollywood chords, ultimate guitar, yousician, guitar lessons, acoustic guitar, electric guitar, guitar tuner, 911 tabs