Guitar Tabs for Denis Solo

(/) Slide Up  (\) Slide Down  (h) Hammer On  (p) Pull Off  (b) Bend (r) Release (v) Vibrato (x) Muted

Tabs for Song : 
BPM : 300

Song lyrics here 
E|-----------------------------------------------------------------------------------------------
B|-----17-14----14----------------14----14-17-14----14-17-14----14----------------14-17-14----14-
G|-----------13----13----------13----13----------13----------13----13----------13----------13----
D|--------------------14----14----------------------------------------14----14-------------------
A|-----------------------16----------------------------------------------16----------------------
E|-----------------------------------------------------------------------------------------------

E|--------------------------------------------------9-----7--------------------------
B|--------------------------------------12-10-9--7-----10----9--10-7--9-----7--------
G|--------------11----------13-11----------------------------------------9-----8--9--
D|--14-13-11-13----14-13-14-------14-13----------------------------------------------
A|-----------------------------------------------------------------------------------
E|-----------------------------------------------------------------------------------

E|--------------------------------------------------------------8--9--7--------------------
B|--------------------------------------7--9-----7--9--10-9--10----------10-9--10-9--7-----
G|--6--8--4--6--4--6--5--6--8--9--8--9--------9-----------------------------------------9--
D|-----------------------------------------------------------------------------------------
A|-----------------------------------------------------------------------------------------
E|-----------------------------------------------------------------------------------------

E|--11-8-----8--------------
B|--------10----10-7--10-7--
G|--------------------------
D|--------------------------
A|--------------------------
E|--------------------------

E|--4-----------------4-----4-----------------4-----4-----
B|-----5-----------5-----5-----5-----------5-----5-----5--
G|--------6-----6-----------------6-----6-----------------
D|-----------6-----------------------6--------------------
A|--------------------------------------------------------
E|--------------------------------------------------------

E|--11-8-----------8--11-8-----------8--11-8-----------8--14-11----------11-14-11----------11----
B|--------10----10----------10----10----------10----10----------13----13----------13----13----14-
G|-----------11----------------11----------------11----------------14----------------14----------
D|-----------------------------------------------------------------------------------------------
A|-----------------------------------------------------------------------------------------------
E|-----------------------------------------------------------------------------------------------





Song lyrics here

Use manual mode to free up cursor. Paste any tab in acousterr tab maker and we'll play it
tabs and chords, guitar tabs, music transcription, music technology, deep learning, music information retrieval, transcribe into tabs & chords, chordify, music renditions, songsterr, reverbnation, tabulature, bollywood chords, ultimate guitar, yousician, guitar lessons, acoustic guitar, electric guitar, guitar tuner, 911 tabs