Guitar Tabs for Alone Pt2

                                                       BPM:45
                                                       (200)
E|--------------------------
B|--1--1--1--1--------------
G|--------------2--2--2--2--
D|--------------------------
A|--------------------------
E|--------------------------


E|--------------------------------------------------------------------------------------------------
B|-----1--0--------1--0--------1--0--------1--0--------1--0--------1--0--------1--0--------1--0-----
G|--2-----------2-----------2-----------2-----------0-----------0-----------0-----------0-----------
D|--------------------------------------------------------------------------------------------------
A|--------------------------------------------------------------------------------------------------
E|--------------------------------------------------------------------------------------------------

E|--------------------------------------------------------------------------------------------------
B|-----1--0--------1--0--------1--0--------1--0--------1--0--------1--0--------1--0--------1--0-----
G|--------------------------------------------------------------------------------------------------
D|--2-----------2-----------2-----------2-----------------------------------------------------------
A|--------------------------------------------------2-----------2-----------2-----------2-----------
E|--------------------------------------------------------------------------------------------------
tabs and chords, guitar tabs, music transcription, music technology, deep learning, music information retrieval, transcribe into tabs & chords, chordify, music renditions, songsterr, reverbnation, tabulature, bollywood chords, ultimate guitar, yousician, guitar lessons, acoustic guitar, electric guitar, guitar tuner, 911 tabs