Guitar Tabs for Darkside 1

(/) Slide Up  (\) Slide Down  (h) Hammer On  (p) Pull Off  (b) Bend (r) Release (v) Vibrato (x) Muted

Tabs & Chords
BPM : 85.0
Check Track 2 for Chord Positions 

          Em             D           C                 D     Em          D  C                 
E|--15----0-----0--------------------0--------------------------0-----------0-----------------
B|--------------------8--------------------------------------0-----8--------------------8--8--
G|-----------------------------7-----------7-----7-----7-----------------0--------------------
D|-----------------------0--7-----------------------------------------------------10----------
A|--------------------------------------------------------------------------------------------
E|--------------------------------------------------------------------------------------------

       D  Em             D              C        G           Em       D           C           
E|--------0--0--------7-----------------0-----------------------------------------------------
B|-----7--------8--10----8--7--7--7--------7--8-----0--------8--10-0--7-----------7--8--7--8--
G|--------------------------------------------------------------------------7-----------------
D|-----------------------------------------------7-----7--------------------------------------
A|--------------------------------------------------------------------------------------------
E|--------------------------------------------------------------------------------------------

          D                    Em          D     C              G        
E|-----------------------0-----0-----------------0-----------------------
B|-----8--7--8--7--8--7-----------8--10----7-----------7--8-----0--------
G|-----------------------------------------------------------------------
D|-----------------------------------------------------------7-----7-----
A|--------------------------------------------------------------------9--
E|-----------------------------------------------------------------------

Guitar Tabs for Darkside 1






          Em             D           C                 D     Em          D  C                 
E|--------0--------------2-----------0-----------------2-----0-----------2--0-----------------
B|--------0--------------3-----------1-----------------3-----0-----------3--1-----------------
G|--------0--------------2-----------0-----------------2-----0-----------2--0-----------------
D|--------2--------------0-----------2-----------------0-----2-----------0--2-----------------
A|--------2--------------------------3-----------------------2--------------3-----------------
E|--------0--------------------------------------------------0--------------------------------

       D  Em             D              C        G           Em       D           C           
E|-----2--0--------------2--------------0--------3-----------0--------2-----------0-----------
B|-----3--0--------------3--------------1--------3-----------0--------3-----------1-----------
G|-----2--0--------------2--------------0--------4-----------0--------2-----------0-----------
D|-----0--2--------------0--------------2--------5-----------2--------0-----------2-----------
A|--------2-----------------------------3--------5-----------2--------------------3-----------
E|--------0--------------------------------------3-----------0--------------------------------

          D                    Em          D     C              G        
E|--------2--------------------0-----------2-----0--------------3--------
B|--------3--------------------0-----------3-----1--------------3--------
G|--------2--------------------0-----------2-----0--------------4--------
D|--------0--------------------2-----------0-----2--------------5--------
A|-----------------------------2-----------------3--------------5--------
E|-----------------------------0--------------------------------3--------

tabs and chords, guitar tabs, music transcription, music technology, deep learning, music information retrieval, transcribe into tabs & chords, chordify, music renditions, songsterr, reverbnation, tabulature, bollywood chords, ultimate guitar, yousician, guitar lessons, acoustic guitar, electric guitar, guitar tuner, 911 tabs