Guitar Tabs for Alan Walker - Darkside

(/) Slide Up  (\) Slide Down  (h) Hammer On  (p) Pull Off  (b) Bend (r) Release (v) Vibrato (x) Muted

Tabs & Chords

Check Track 2 for Chord Positions 

    E     D                       C                 D     E     Em    D                 C        
E|--0-----------------7-----------0-----0-----------------0-----------------10----------0-----0--
B|--------8-----7-----------7-----------------8-----7-----------8-----7-----------7--------------
G|-----------------------------------------------------------------------------------------------
D|-----------------------------------------------------------------------------------------------
A|-----------------------------------------------------------------------------------------------
E|-----------------------------------------------------------------------------------------------

             D     Em                D           C                       G           Em       
E|-----------------------------------7-----------------0--------------------------------------
B|-----8-----7-----------8-----10----------7-----------------7-----8-----0-----------------8--
G|--------------------------------------------------------------------------------------------
D|-----------------------------------------------------------------------------7--------------
A|-----------------7-----------------------------------------------------------------7--------
E|-----------------------------------------------8--------------------------------------------

             D                 C                 D                 Em                D        
E|-----------7-----------------------------------------------------0-----------------7--------
B|-----10----------7-----------8-----------8-----7-----7-----8-----------8-----10----------7--
G|-----------------------7--------------------------------------------------------------------
D|--------------------------------------------------------------------------------------------
A|--------------------------------------------------------------------------------------------
E|-----------------------------------8--------------------------------------------------------

       C                       G           Em                      D           C              
E|-----------0-----------------------------------------------7--------------------------------
B|-----------------7-----8-----0-----------------8-----10----------7-----------8-----------8--
G|-----------------------------------------------------------------------7--------------------
D|-----------------------------------7--------------------------------------------------------
A|-----------------------------------------7--------------------------------------------------
E|-----8-----------------------------------------------------------------------------8--------

       D                 Em             G                    C              D           Em       
E|-----------------------------------------7-----------------0-----8-----7--------------0--------
B|-----7-----7-----8-----8-----8-----8--10----------------------------------10----7-----------8--
G|-----------------------------------------------0-----7-----------------------------------------
D|-----------------------------------------------------------------------------------------------
A|-----------------------------------------------------------------------------------------------
E|-----------------------------------------------------------------------------------------------

          G                    C              D           E     Em                      G        
E|-----------7-----------------0-----8-----7--------------0-----0--------------------------------
B|-----8--10----------------------------------10----7-----------------7-----8-----------8-----10-
G|-----------------0-----7--------------------------------------------------------0--------------
D|-----------------------------------------------------------------------------------------------
A|-----------------------------------------------------------------------------------------------
E|-----------------------------------------------------------------------------------------------

             C                       G                       Em                         G     
E|-----7-----------------------7-----8-----7-----------------------------------------------7--
B|-----------------8-----10----------------------10----8-----8-----------8-----------8--10----
G|--------------------------------------------------------------------------------------------
D|--------------------------------------------------------------------------------------------
A|-----------------------------------------------------------------7-----------7--------------
E|-----------8--------------------------------------------------------------------------------

             C              D           Em             G                 C              D        
E|-----------0-----8-----7--------------0-----------10-7-----7-----------0-----8-----7-----------
B|--------------------------10----7-----------8-----------10----------------------------10----7--
G|-----7-----------------------------------------------------------7-----------------------------
D|-----------------------------------------------------------------------------------------------
A|-----------------------------------------------------------------------------------------------
E|-----------------------------------------------------------------------------------------------

       Em             G                 C              D           E                 Em    G  
E|-----0-----------10-7-----7-----------0-----8-----7--------------0-----0--------------------
B|-----------8-----------10----------------------------10----7-----------------7-----8-----8--
G|--------------------------------7-----------------------------------------------------------
D|--------------------------------------------------------------------------------------------
A|--------------------------------------------------------------------------------------------
E|--------------------------------------------------------------------------------------------

                   C                 D                       Em          G                 C  
E|-----------7-----------------7-----8-----7-----------------------------------7-----------0--
B|-----10----------8-----10----------------------10----8-----8-----8-----8--10----------------
G|-----------------------------------------------------------------------------------7--------
D|--------------------------------------------------------------------------------------------
A|--------------------------------------------------------------------------------------------
E|--------------------------------------------------------------------------------------------

                D        
E|-----8-----7-----------
B|--------------10----7--
G|-----------------------
D|-----------------------
A|-----------------------
E|-----------------------

Guitar Tabs for Alan Walker - Darkside






    E     D                       C                 D     E     Em    D                 C        
E|--0-----2-----------------------0-----------------2-----0-----0-----2-----------------0--------
B|--0-----3-----------------------1-----------------3-----0-----0-----3-----------------1--------
G|--1-----2-----------------------0-----------------2-----1-----0-----2-----------------0--------
D|--2-----0-----------------------2-----------------0-----2-----2-----0-----------------2--------
A|--2-----------------------------3-----------------------2-----2-----------------------3--------
E|--0-----------------------------------------------------0-----0--------------------------------

             D     Em                D           C                       G           Em       
E|-----------2-----0-----------------2-----------0-----------------------3-----------0--------
B|-----------3-----0-----------------3-----------1-----------------------3-----------0--------
G|-----------2-----0-----------------2-----------0-----------------------4-----------0--------
D|-----------0-----2-----------------0-----------2-----------------------5-----------2--------
A|-----------------2-----------------------------3-----------------------5-----------2--------
E|-----------------0-----------------------------------------------------3-----------0--------

             D                 C                 D                 Em                D        
E|-----------2-----------------0-----------------2-----------------0-----------------2--------
B|-----------3-----------------1-----------------3-----------------0-----------------3--------
G|-----------2-----------------0-----------------2-----------------0-----------------2--------
D|-----------0-----------------2-----------------0-----------------2-----------------0--------
A|-----------------------------3-----------------------------------2--------------------------
E|-----------------------------------------------------------------0--------------------------

       C                       G           Em                      D           C              
E|-----0-----------------------3-----------0-----------------------2-----------0--------------
B|-----1-----------------------3-----------0-----------------------3-----------1--------------
G|-----0-----------------------4-----------0-----------------------2-----------0--------------
D|-----2-----------------------5-----------2-----------------------0-----------2--------------
A|-----3-----------------------5-----------2-----------------------------------3--------------
E|-----------------------------3-----------0--------------------------------------------------

       D                 Em             G                    C              D           Em       
E|-----2-----------------0--------------3--------------------0--------------2-----------0--------
B|-----3-----------------0--------------3--------------------1--------------3-----------0--------
G|-----2-----------------0--------------4--------------------0--------------2-----------0--------
D|-----0-----------------2--------------5--------------------2--------------0-----------2--------
A|-----------------------2--------------5--------------------3--------------------------2--------
E|-----------------------0--------------3-----------------------------------------------0--------

          G                    C              D           E     Em                      G        
E|--------3--------------------0--------------2-----------0-----0-----------------------3--------
B|--------3--------------------1--------------3-----------0-----0-----------------------3--------
G|--------4--------------------0--------------2-----------1-----0-----------------------4--------
D|--------5--------------------2--------------0-----------2-----2-----------------------5--------
A|--------5--------------------3--------------------------2-----2-----------------------5--------
E|--------3-----------------------------------------------0-----0-----------------------3--------

             C                       G                       Em                         G     
E|-----------0-----------------------3-----------------------0--------------------------3-----
B|-----------1-----------------------3-----------------------0--------------------------3-----
G|-----------0-----------------------4-----------------------0--------------------------4-----
D|-----------2-----------------------5-----------------------2--------------------------5-----
A|-----------3-----------------------5-----------------------2--------------------------5-----
E|-----------------------------------3-----------------------0--------------------------3-----

             C              D           Em             G                 C              D        
E|-----------0--------------2-----------0--------------3-----------------0--------------2--------
B|-----------1--------------3-----------0--------------3-----------------1--------------3--------
G|-----------0--------------2-----------0--------------4-----------------0--------------2--------
D|-----------2--------------0-----------2--------------5-----------------2--------------0--------
A|-----------3--------------------------2--------------5-----------------3-----------------------
E|--------------------------------------0--------------3-----------------------------------------

       Em             G                 C              D           E                 Em    G  
E|-----0--------------3-----------------0--------------2-----------0-----------------0-----3--
B|-----0--------------3-----------------1--------------3-----------0-----------------0-----3--
G|-----0--------------4-----------------0--------------2-----------1-----------------0-----4--
D|-----2--------------5-----------------2--------------0-----------2-----------------2-----5--
A|-----2--------------5-----------------3--------------------------2-----------------2-----5--
E|-----0--------------3--------------------------------------------0-----------------0-----3--

                   C                 D                       Em          G                 C  
E|-----------------0-----------------2-----------------------0-----------3-----------------0--
B|-----------------1-----------------3-----------------------0-----------3-----------------1--
G|-----------------0-----------------2-----------------------0-----------4-----------------0--
D|-----------------2-----------------0-----------------------2-----------5-----------------2--
A|-----------------3-----------------------------------------2-----------5-----------------3--
E|-----------------------------------------------------------0-----------3--------------------

                D        
E|--------------2--------
B|--------------3--------
G|--------------2--------
D|--------------0--------
A|-----------------------
E|-----------------------

tabs and chords, guitar tabs, music transcription, music technology, deep learning, music information retrieval, transcribe into tabs & chords, chordify, music renditions, songsterr, reverbnation, tabulature, bollywood chords, ultimate guitar, yousician, guitar lessons, acoustic guitar, electric guitar, guitar tuner, 911 tabs