Guitar Tabs for Darkside

(/) Slide Up  (\) Slide Down  (h) Hammer On  (p) Pull Off  (b) Bend (r) Release (v) Vibrato (x) Muted

Tabs for Song : 

Song lyrics here
E|--3-----2-----0-----------------7--2--0-----------3-----2-----0-----------------7--2--0-----------3-----2-----0--3--5--7--2-----------0--0--2--3--------------
B|--------------------------3--------------1--------------------------------3--------------1--------------------0-----------0-----12----5-----------0-----------
G|--------------------------------------------------------------------------------------------------------------------------------------------------------2-----
D|--------------------------0-----------------------------------------------0-----------------------------------------------------------------------------------
A|--------------------------------------------------------------------------------------------------------------------------------------------------------------
E|--------------------------------------------------------------------------------------------------------------------------------------------------------------

Song lyrics here
E|--0--3---5/7--2--------3--------3-----3-----2-----0--3---5/7--2-----------0--0--2--3--------------0--3---5/7--2--------3-----0-----3-----2-----
B|--0-----------------3-----------------------------------------------12----5-----------0-----------0-----------------3--------------------------
G|--------------------------------------------------------------------------------------------2--------------------------------------------------
D|-----------------------------------------------------------------------------------------------------------------------------------------------
A|-----------------------------------------------------------------------------------------------------------------------------------------------
E|-----------------------------------------------------------------------------------------------------------------------------------------------

E|--3-----3-----3---5/7-------0----8\7----5-----2--0--3-----3-----3-5/7-------0----8\7----5-----2---0--
B|--------0--------------3----------------------------------0--------------3---------------------------
G|-----------------------------------------------------------------------------------------------------
D|-----------------------------------------------------------------------------------------------------
A|-----------------------------------------------------------------------------------------------------
E|-----------------------------------------------------------------------------------------------------

E|---0h2--3-----3--5--7-----3--5--7--8--7--5--2---3-----3-----3---5/7-----0------8\7--5-----2--
B|-----------------------------------------------------0--------------3-----------------------
G|--------------------------------------------------------------------------------------------
D|--------------------------------------------------------------------------------------------
A|--------------------------------------------------------------------------------------------
E|--------------------------------------------------------------------------------------------



Paste any tab in acousterr's tab maker and we'll play it !!!
Now supports capo and sound effects for vibrato/pull-off/hammer/bends/mutes etc !!! Checkout help section
tabs and chords, guitar tabs, music transcription, music technology, deep learning, music information retrieval, transcribe into tabs & chords, chordify, music renditions, songsterr, reverbnation, tabulature, bollywood chords, ultimate guitar, yousician, guitar lessons, acoustic guitar, electric guitar, guitar tuner, 911 tabs