Guitar Tabs for Class Composition

(/) Slide Up  (\) Slide Down  (h) Hammer On  (p) Pull Off  (b) Bend (r) Release (v) Vibrato

Tabs for Song : 

Song lyrics here
E|--0--h3-------3--r---------3----0--h2-------2--r--------2-----0--------2--------3--------2--------------------------------------------------------
B|--------3-----------3-----------------3-----------3--------------0--------0--------0-----------0--h1-------3--------1-----1--p0-------------------
G|-----------0-----------0-----------------2-----------2--------------0--------0--------0--------------0--------0--------0--------------------------
D|--------------------------------------------------------------------------------------------------------2--------2--------------------------------
A|--------------------------------------------------------------------------------------------------------------------------------------------------
E|--------------------------------------------------------------------------------------------------------------------------------------------------

E|--0--2--3--2--0---------0--2--3--2--0--------0--2--3--2--0---------0--2--3--2--0------0--2--3--2--0----------
B|----------------------0--------------------3--------------------1--------------------3-----------------------
G|-------------------------------------------------------------------------------------------------------------
D|--------------------------------------0----------------------------------------------------------------------
A|-------------------------------------------------------------3-----------------------------------------------
E|-----------------0----------------------------------------------------------------3--------------------0-----r

E|--
B|--
G|--
D|--
A|--
E|--



Song lyrics here
E|--
B|--
G|--
D|--
A|--
E|--

Now supports capo and sound effects for vibrato/pull-off/hammer/bends etc !!! Checkout help section
tabs and chords, guitar tabs, music transcription, music technology, deep learning, music information retrieval, transcribe into tabs & chords, chordify, music renditions, songsterr, reverbnation, tabulature, bollywood chords, ultimate guitar, yousician, guitar lessons, acoustic guitar, electric guitar, guitar tuner, 911 tabs