Guitar Tabs for Math Class

(/) Slide Up  (\) Slide Down  (h) Hammer On  (p) Pull Off  (b) Bend (r) Release (v) Vibrato (x) Muted

Tabs for Song : 

Song lyrics here
E|-----1--3--2--3--------1-----3--2--3--3--3--3--2--2--3-----1--2-----2--1-----3--3-----1--2-----2--1-----3-----3--3-----1--1--1--3--3-----------3--3--3-----1--2--1--1--1--1--2--1--------3--3--3--3-----1--2-----2--1-----3--3-----1--2-----2--1-----3--3-----------3--3-----1--2--1--1--------3--3--------1--2--------1--
B|-----------3--------------------3--------------3--3-----------3-----3--------------------3-----3--------------------------------------------------------------3--------------3-----------------------------3-----3--------------------3-----3-----------------------------------3-----------------------------3-----------
G|-----------2--------------------2--------------2--2-----------2-----2--------------------2-----2--------------------------------------------------------------2--------------2-----------------------------2-----2--------------------2-----2-----------------------------------2-----------------------------2-----------
D|--2--2-----------------2--2-----------------------------2--2-----------2--2--------2--2-----------2--2-----2--------2--2--2--2--------2--2--2-----------2--2-----2--2--2--2-----2--2--2--------------2--2-----------2--2--------2--2-----------2--2--------2--2--2--------2--2-----2--2--2--2--------2--2--2-----2--2--2--
A|--2--3--2-----2--------3--2--2-----2--2--2--2--------2--2--3-----------3--2--2--2--2--3-----------3--2--2--2--2--2--2--3--3--3--2--2--2--2--2--2--2--2--2--3-----3--3--3--3-----3--2--2--2--2--2--2--2--3-----------3--2--2--2--2--3-----------3--2--2--2--2--2--2--2--2--2--3-----3--3--2--2--2--2--2--2--3-----2--2--3--
E|--------3-----3--------------3-----3--3--3--3--------3-----------------------3--3-----------------------3-----3--3--------------3--3-----------3--3--3-----------------------------------3--3--3--3-----------------------3--3-----------------------3--3-----------3--3-----------------------3--3-----------------------

Song lyrics here

E|-----1--3--2--3--------1-----3--2--3--3--3--3--2--2--3-----1--2-----2--1-----3--3-----1--2-----2--1-----3-----3--3-----1--1--1--3--3-----------3--3--3-----1--2--1--1--1--1--2--1--------3--3--3--3-----1--2-----2--1-----3--3-----1--2-----2--1-----3--3-----------3--3-----1--2--1--1--------3--3--------1--2--------1--
B|-----------3--------------------3--------------3--3-----------3-----3--------------------3-----3--------------------------------------------------------------3--------------3-----------------------------3-----3--------------------3-----3-----------------------------------3-----------------------------3-----------
G|-----------2--------------------2--------------2--2-----------2-----2--------------------2-----2--------------------------------------------------------------2--------------2-----------------------------2-----2--------------------2-----2-----------------------------------2-----------------------------2-----------
D|--2--2-----------------2--2-----------------------------2--2-----------2--2--------2--2-----------2--2-----2--------2--2--2--2--------2--2--2-----------2--2-----2--2--2--2-----2--2--2--------------2--2-----------2--2--------2--2-----------2--2--------2--2--2--------2--2-----2--2--2--2--------2--2--2-----2--2--2--
A|--2--3--2-----2--------3--2--2-----2--2--2--2--------2--2--3-----------3--2--2--2--2--3-----------3--2--2--2--2--2--2--3--3--3--2--2--2--2--2--2--2--2--2--3-----3--3--3--3-----3--2--2--2--2--2--2--2--3-----------3--2--2--2--2--3-----------3--2--2--2--2--2--2--2--2--2--3-----3--3--2--2--2--2--2--2--3-----2--2--3--
E|--------3-----3--------------3-----3--3--3--3--------3-----------------------3--3-----------------------3-----3--3--------------3--3-----------3--3--3-----------------------------------3--3--3--3-----------------------3--3-----------------------3--3-----------3--3-----------------------3--3-----------------------



Paste any tab in acousterr's tab maker and we'll play it !!!
Now supports capo and sound effects for vibrato/pull-off/hammer/bends/mutes etc !!! Checkout help section
tabs and chords, guitar tabs, music transcription, music technology, deep learning, music information retrieval, transcribe into tabs & chords, chordify, music renditions, songsterr, reverbnation, tabulature, bollywood chords, ultimate guitar, yousician, guitar lessons, acoustic guitar, electric guitar, guitar tuner, 911 tabs