Guitar Tabs for Composition

(/) Slide Up  (\) Slide Down  (h) Hammer On  (p) Pull Off  (b) Bend (r) Release (v) Vibrato (x) Muted

Tabs for Song : 
BPM : 200

Song lyrics here 
E|--------------------------------------------------------------------------------------------------------------------------------------------------------------------------------------------------------------------------------------------------------------------------
B|--------------------------------------------------------------------------------------------------------------------------------------------------------------------------------------------------------------------------------------------------------------------------
G|--------------------------------------------------------------------------------------------------------------------------------------------------------------------------------------------------------------------------------------------------------------------------
D|--------------------------------------------------------------------------------------------------------------------------------------------------------------------------------------------------------------------------------------------------------------------------
A|-----------------5--0--5--3--2-----------0--2--------------------------0--2--3--5--3--2--------------------------------------------2--0--2--3--2-----------5--3--2--5--3--2--------------------5--0--5--3--2--------0--2--------------------------2--3--------------------
E|-----0--2--3--5--------------------------------3--2--3--5--3---2 ------0--2--3--5--3--2--------0--2--3--5--3--2--0--2--------0--2-----------------3--------5--3--2--5--3--2--------0--2--3--5-----------------------------3--2--3--5--3--2--------------2--3-----5-----0--



Song lyrics here 
E|--
B|--
G|--
D|--
A|--
E|--

Use manual mode to free up cursor. Paste any tab in acousterr tab maker and we'll play it !!!

Guitar Tabs for Composition






E|--------------------------------------------------------------------------------------------------------------------------------------------------------------------------------------------------------------------------------------------------------------------------
B|--------------------------------------------------------------------------------------------------------------------------------------------------------------------------------------------------------------------------------------------------------------------------
G|-----4-----2-----4-----------------------------------------------------0-----4-----------------------------------------------2-----4-----2-----4-----------------------------------4-----2-----4--------------------------------------------------2-----------------------
D|-----------------------2-----4-----------0-----2-----0-----2-----------------------4-----------2-----4-----2-----5--------------------------------------------5-----2-----4--------------------------2-----4--------0-----2-----0-----2-----------------5--------4-----2--
A|--------------------------------------------------------------------------------------------------------------------------------------------------------------------------------------------------------------------------------------------------------------------------
E|--------------------------------------------------------------------------------------------------------------------------------------------------------------------------------------------------------------------------------------------------------------------------




E|--
B|--
G|--
D|--
A|--
E|--

Guitar Tabs for Composition






E|-----------------5--0--5--3--2-----------0--2--------------------------0--2--3--5--3--2--------------------------------------------2--0--2--3--2-----------5--3--2--5--3--2--------------------5--0--5--3--2--------0--2--------------------------2--3--------------------
B|-----0--2--3--5--------------------------------3--2--3--5--3--2--------0--2--3--5--3--2--------0--2--3--5--3--2--0--2--------0--2-----------------3--------5--3--2--5--3--2--------0--2--3--5-----------------------------3--2--3--5--3--2--------------2--3-----5-----0--
G|--------------------------------------------------------------------------------------------------------------------------------------------------------------------------------------------------------------------------------------------------------------------------
D|--------------------------------------------------------------------------------------------------------------------------------------------------------------------------------------------------------------------------------------------------------------------------
A|--------------------------------------------------------------------------------------------------------------------------------------------------------------------------------------------------------------------------------------------------------------------------
E|--------------------------------------------------------------------------------------------------------------------------------------------------------------------------------------------------------------------------------------------------------------------------




E|--
B|--
G|--
D|--
A|--
E|--

tabs and chords, guitar tabs, music transcription, music technology, deep learning, music information retrieval, transcribe into tabs & chords, chordify, music renditions, songsterr, reverbnation, tabulature, bollywood chords, ultimate guitar, yousician, guitar lessons, acoustic guitar, electric guitar, guitar tuner, 911 tabs