Guitar Tabs for Cl

(/) Slide Up  (\) Slide Down  (h) Hammer On  (p) Pull Off  (b) Bend (r) Release (v) Vibrato (x) Muted

Tabs & Chords
BPM : 144.0
Check Track 2 for Chord Positions 

             E     G#m               A              E                             G#m            
E|-----0-----------------4--------------------0--------------------0-----4--------------4--------
B|-----------7-----7-----------7-----7-----------------0-----0--------------7-----7-----------7--
G|--6--------------------------------------6--------6--------------------------------------------
D|-----------------------------------------------------------------------------------------------
A|-----------------------------------------------------------------------------------------------
E|-----------------------------------------------------------------------------------------------

       A              E                                         G#m         A                 E  
E|--------------0-----0--------------------------4--7-----7-----4-----------------------0-----0--
B|-----7--------------------0-----------------------------------------7-----7--------------------
G|-----------6-----------------6-----6--------------------------------------------6--------------
D|-----------------------------------------------------------------------------------------------
A|-----------------------------------------------------------------------------------------------
E|--------------------------------------7--0-----------------------------------------------------

                                     G#m   A                    E                       
E|-----------------7-----7-----7--------------------------0-----------0-----4-----4-----
B|--0-----0--------------------------7-----7--------------------0--------7--------------
G|-----------------------------------------------6--6--------------6--------------------
D|--------------------------------------------------------------------------------------
A|-----------------------------------------------------------------------------------6--
E|-----------0--------------------------------------------------------------------------

Guitar Tabs for Cl






             E     G#m               A              E                             G#m            
E|-----------0-----4-----------------0--------------0-----------------------------4--------------
B|-----------0-----4-----------------2--------------0-----------------------------4--------------
G|-----------1-----4-----------------2--------------1-----------------------------4--------------
D|-----------2-----6-----------------2--------------2-----------------------------6--------------
A|-----------2-----6-----------------0--------------2-----------------------------6--------------
E|-----------0-----4--------------------------------0-----------------------------4--------------

       A              E                                         G#m         A                 E  
E|-----0--------------0-----------------------------------------4-----------0-----------------0--
B|-----2--------------0-----------------------------------------4-----------2-----------------0--
G|-----2--------------1-----------------------------------------4-----------2-----------------1--
D|-----2--------------2-----------------------------------------6-----------2-----------------2--
A|-----0--------------2-----------------------------------------6-----------0-----------------2--
E|--------------------0-----------------------------------------4-----------------------------0--

                                     G#m   A                    E                       
E|-----------------------------------4-----0--------------------0-----------------------
B|-----------------------------------4-----2--------------------0-----------------------
G|-----------------------------------4-----2--------------------1-----------------------
D|-----------------------------------6-----2--------------------2-----------------------
A|-----------------------------------6-----0--------------------2-----------------------
E|-----------------------------------4--------------------------0-----------------------

tabs and chords, guitar tabs, music transcription, music technology, deep learning, music information retrieval, transcribe into tabs & chords, chordify, music renditions, songsterr, reverbnation, tabulature, bollywood chords, ultimate guitar, yousician, guitar lessons, acoustic guitar, electric guitar, guitar tuner, 911 tabs