Guitar Tabs for City Of Stars - La La Land Tabs

(/) Slide Up  (\) Slide Down  (h) Hammer On  (p) Pull Off  (b) Bend (r) Release (v) Vibrato (x) Muted

Tabs for Song : City of Stars Tabs


E|-----------0-----0-----------------0-----0-----------------0-----0-----------------0-----0--------------
B|--------0-----------3-----------0-----------3-----------0-----------3-----------0-----------3-----------
G|-----0-----------------4-----0-----------------4-----0-----------------4-----0-----------------4--------
D|--2-----------2-----------2-----------2-----------2-----------2-----------2-----------2-----------2--4--
A|--------------------------------------------------------------------------------------------------------
E|--0-----------------------0-----------------------0-----------------------0-----------------------0-----

E|-----------------------------------------------------------------------------------------------------
B|-----0--------2--3--0--2-----------------------------------------------------------------0--------2--
G|--0-----------0-----------2--4-----------4-----4--2--------------4-----4--2-----------0-----------0--
D|-----------2-----------------------0--4--------------4-----0--4--------------4--2--4-----------2-----
A|--------0-----------------------2-----------2-----------2-----------2-----------------------0--------
E|--------------------------------------------------------------------------------0--------------------

E|--------------------------------------------------------------------------------------------------------
B|--3--0--2-----------------3------3p2--------------3-----3-----------0-----------------------------------
G|-----------2--4--------2--------------2--------2-----------------0--------0-----------2--4--2--4--2--4--
D|--------------------4-----------------------4--------------4--5--------5-----5-----2--------------------
A|-----------------5-----------5-----------5-----------5--------------------------0-----------------------
E|--------------------------------------------------------------0-----------------------------------------

E|--------------------------2--0---------------0h-2p0-----------------------------------------------------
B|-----------------------------------0--2--------------3--------------------------------------------------
G|-----------------------------------0--3--3-----------------------4-----4--2--------------4-----4--2-----
D|-----4-----4--4-----5--4--------2-----2--------------------0--4--------------4-----0--4--------------4--
A|--5-----5-----4--4-----3--------------------------------2-----------2-----------0-----------0-----------
E|-----------------------------0--------2-----------------------------------------------------------------

E|--------------------------------------------------------------------------------------------------
B|-----------0--------------------2--3-----2--------------------------------------------------------
G|--------0-----------0-----------2--2--4-----2--4-----------4-----4--2--------------4-----4--2--4--
D|---2/4-----------4-----4-----2--2--------------------0--4--------------4-----0--4-----------------
A|--------------------------0-----------------------2-----------2-----------0-----------0-----------
E|--0-----------0-----------------------------------------------------------------------------------

E|--------------------------------------------------------------------------------------------------------
B|-----------0-----------------3--2--3-----2-----------------------------------------------------0--------
G|--------0-----------0--------2--2--2--4-----2--4--------------------2--------------------------------0--
D|---2/4-----------4-----4-----2-----2-----------------4-----2--4--------4-----4-----4--4--5--------5-----
A|--------------------------0-----------------------5-----5--------5--------4-----4-----------------------
E|--0-----------0--------------------------------------------------------------------------0--0-----------

E|---------------------------------------------------------------------2p0-----------------------
B|-----------------------------------------------------------------------------0-----------------
G|-----------2--4---2h-4p2-----4-----------------------------------------------0-----0--------3--
D|--5-----2--2-----------------------4-----4--4-----5-----4-----4-----------2-----2--------2-----
A|-----0--------------------0-----5-----5-----4--4-----3-----3-----3-----------------------------
E|-----------------------------------------------------------------------0--------------2--------
tabs and chords, guitar tabs, music transcription, music technology, deep learning, music information retrieval, transcribe into tabs & chords, chordify, music renditions, songsterr, reverbnation, tabulature, bollywood chords, ultimate guitar, yousician, guitar lessons, acoustic guitar, electric guitar, guitar tuner, 911 tabs