Guitar Tabs for City Of Stars - La La Land

(/) Slide Up  (\) Slide Down  (h) Hammer On  (p) Pull Off  (b) Bend (r) Release (v) Vibrato (x) Muted

Tabs for Song :
City of stars - La La Land

BPM : 200
capo at 3rd fret


E|-----------0--0--------------------0--0--------------------0--0--------------------0--0--------
B|--------0--------3--0-----------0--------3--0-----------0--------3--0-----------0--------3--0--
G|-----0-----------------------0-----------------------0-----------------------0-----------------
D|--2-----------------------2-----------------------2-----------------------2--------------------
A|-----------------------------------------------------------------------------------------------
E|--0-----------------------0-----------------------0-----------------------0--------------------

E|-----------------------------------------------------------------------------------------------
B|-----------0-----------------2--3-----2--------------------0--0--------------------0--0--------
G|--------0--------------------2-----4-----2--4--------------------2-----------------------2-----
D|---2\-------------2p---------2------------------------0h4-----------4---------0h4-----------4-- 
A|----------------x---2-----0-----------------------2-----------------------2--------------------
E|--0-------------x------------------------------------------------------------------------------

Song lyrics here 
E|-------------------------------------------------------------------------------------------------
B|--------0--------------------2--3-----2--------------------3------3p2-----------------3----------
G|-----0-----------------------2-----4-----2--4-----------2--------------2-----------2-------------
D|---2\----------2p0-----------2-----------------------4--------------------------4-------------4--
A|-------------x------2-----0-----------------------5-------------x------------5-------------x-----
E|--0----------x--------------------------------------------------x--------------------------x-----

Song lyrics here 
E|------------------------------------------------------------------------------0h2-----0-----------
B|-----------------12-------------------------------------------------------------------0-----0-----
G|--0-----0-----------------4--2--4--2--4--2--4-----------------0-----------------------------0-----
D|-----5-----5--------------2-----------------------4-----4--4-----4--------------------------2-----
A|-----------------------0--------------------------5--5-----4-----3--------------------------------
E|--0-----------------------------------------------------------------------------------0--0--0--0--

E|------0h2--0-----------------------------------------------------------------------------
B|--2-----------3--------------0--0--------------------0--0-------------------0------------
G|--3--------------------------------2-----------------------2-------------0---------------
D|--2---------------------0h4-----------4---------0h4-----------4-----2\4----------2p0-----
A|--------------------2-----------------------0----------------------------------x------2--
E|--2-----------------------------------------------------------------0----------x---------

E|----------------------------------------------------------------------------------------------
B|-----2--3-----2--------------------0--0--------------------0--0------------------0------------
G|-----2-----4-----2--4--------------------2-----------------------2------------0---------------
D|-----2------------------------0h4-----------4---------0h4-----------4----2\4----------2p0-----
A|--0-----------------------2-----------------------0---------------------------------x------2--
E|-------------------------------------------------------------------------0----------x---------

E|-----------------------------------------------------------------------------------
B|-----3--2--3-----2--------------------------------------------------------------12-
G|-----2--------4-----2--4-----------------0-----------------------0-----0-----------
D|-----2-----------------------4-----4--4-----4--------------4--------5-----5--------
A|--0--------------------------5--5-----4-----3--------------------------------------
E|-----------------------------------------------------------------0-----------------

E|------------------------------------------------------------0p2-----0--------------------2--------
B|--------------------------------------------------------------------0-----0--------2-----2------x-
G|-----4--2--4--2--4--2---4----------------0--------------------------------0--------3-----3------x-
D|-----2------------------------4----4--4-----4-----------------------------2--------2-----2------x-
A|--0---------------------------5-5-----4-----3------------------------------------------------x--x-
E|--------------------------------------------------------------------0--0--0--0-----2---------x----

E|----------------------------------------------------------------------------------------------------------------
B|--0--(0)--0-----(0)----2--(2)--2-----(2)----2--(2)--2--0--(2)--3-------3--(2)--0--0-----------0--(0)--0-----(0)-
G|--0--(0)-----2--(0)----2--(2)-----4--(2)----3--(3)--3-----(3)-------------(0)-----------------0--(0)-----2--(0)-
D|-------------------------------------------------------------------------------------4--------------------------
A|------x----------x-----0---x---0------x---------x----------x--------2------x------2-----x---------x----------x--
E|--3---x---3------x---------x----------x-----2---x---2------x---------------x------------x-----3---x---3------x--

E|----------------------------------------2--------(2)-----2-----------------------------------------------------
B|--2--(2)--2-----(2)---------------------3--------(3)--5-----(5)--3-----0--(0)--0-----(0)-----2--(2)--2-----(2)-
G|--2--(2)-----4--(2)-----------------------------------------(2)--------0--(0)-----2--(0)-----2--(2)-----4--(2)-
D|--------------------------(4)--2--4----------------------------------------------------------------------------
A|--0---x---0------x-----2--(2)--2-----x--------2---x---2------x-------------x----------x------0---x---0------x--
E|------x----------x---------x---------x------------x----------x---------3---x---3------x----------x----------x--

E|-----------------------------------------------------------------------------------------------
B|--2--(2)--2--0--(2)--3--------3--(2)--0--0------------0--(0)--0-----(0)-----2------------------
G|--3--(3)--3-----(3)--------------(0)------------------0--(0)-----2--(0)-----3------------------
D|--------------------------------------------4-------------------------------2----------2h4--2--
A|------x----------x---------2------x------2------x---------x----------x------------2--5---------
E|--2---x---2------x----------------x-------------x-----3---x---3------x------2------------------

E|----------------------------------------------------------------------------------------------
B|--------------------------------0--0--------------------0--0-------------------0--------------
G|--------------------------------------2-----------------------2-------------0-----------------
D|---------------------------0h4-----------4---------0h4-----------4-----2\4------------2p0-----
A|--4\5/4\5--------2-----2-----------------------0----------------------------------x--------2--
E|-----------------------------------------------------------------------0----------x-----------

E|----------------------------------------------------------------------------------------------
B|-----2--3-----2--------------------0--0--------------------3------3p2----------------0--------
G|-----2-----4-----2--4--------------------2--------------2--------------2----------0-----------
D|-----2------------------------0h4-----------4--------4-----------------------2\4--------------
A|--0-----------------------2-----------------------5-----------x-------------------------------
E|--------------------------------------------------------------x--------------0----------------

E|------------0p2--0------------------------------------------------------------7--------
B|--2-----2--------------2\3/2\3-----------------------0--0---------------------7--------
G|--3--3-----------------------------------------------------2------------------7--------
D|--2---------------------------------------------0h4-----------4---------0h4 \ 9--------
A|--------------------------------------------2-----------------------2------------------
E|--2------------------------------------------------------------------------------------

Use manual mode to free up cursor. Paste any tab in acousterr tab maker and we'll play it !!!

tabs and chords, guitar tabs, music transcription, music technology, deep learning, music information retrieval, transcribe into tabs & chords, chordify, music renditions, songsterr, reverbnation, tabulature, bollywood chords, ultimate guitar, yousician, guitar lessons, acoustic guitar, electric guitar, guitar tuner, 911 tabs