Guitar Tabs for City Of Stars

Intro (x4)

E|-----------------------
B|-----------------------
G|-----------0--0--------
D|--------0--------3--0--
A|-----1-----------------
E|--3--------------------

City of stars, are you shinning just for me? 

E|-----------------------------------------------------------------------------------------------
B|-----------------------------------1--1--------------------3--3--------------------3--3--------
G|-----------0--0-----------------0--------3--0-----------2--------2--------------2--------2-----
D|--------0--------3--0--------2--------------------0--3--------------3-----0--3--------------3--
A|-----1--------------------3--------------------------------------------------------------------
E|--3--------------------------------------------------------------------------------------------

City of stars, there's so much that I can't see. 

E|-----------------------------------------------------------1--1--------------------1--1--------
B|-----------------------------------1--1-----------------1--------1--------------1--------1-----
G|-----------0--0-----------------0--------3--0--------2--------------2--------2--------------2--
D|--------0--------3--0--------2--------------------3-----------------------3--------------------
A|-----1--------------------3--------------------------------------------------------------------
E|--3--------------------------------------------------------------------------------------------

Who knows? I felt it from the first embrace, I shared with you

E|-----------------------------------------------------------1--1--------------------1-----
B|-----------------------------------1--1-----------------1--------1--------------1--------
G|-----------0--0-----------------0--------3--0--------2--------------2--------2-----------
D|--------0--------3--0--------2--------------------3-----------------------3--------------
A|-----1--------------------3--------------------------------------------------------------
E|--3--------------------------------------------------------------------------------------

That now, our dreams, may finally come true

E|--------------------0-----------------------------------------
B|--------------------2--------------3--3--------------------3--
G|--------------0-----0-----------2--------2--------------2-----
D|-----------0--------2-----0--3--------------3--------3--------
A|--------1-----------0-----------------------------0-----------
E|-----3--------------------------------------------------------

(X2) (City of stars.. just one thing everybody wants)

Bridge: (A look in somebody's eyes)

E|--0---0---0---0------0---0---0---0------0---0---0---0------1---1---1---1--
B|--3---3---3---3------5---5---5---5------2---2---2---2------3---3---3---3--
G|--3---3---3---3------5---5---5---5------0---0---0---0------2---2---2---2--
D|--3---3---3---3------5---5---5---5------2---2---2---2------0---0---0---0--
A|--1---1---1---1------3---3---3---3------0---0---0---0---------------------
E|--------------------------------------------------------------------------

E|--0---0---0---0------0---0---0---0------1---1---1---1-------1---1---1---1--
B|--3---3---3---3------5---5---5---5------3---3---3---3-------3---3---3---3--
G|--3---3---3---3------5---5---5---5------2---2---2---2-------2---2---2---2--
D|--3---3---3---3------5---5---5---5------0---0---0---0-------0---0---0---0--
A|--1---1---1---1------3---3---3---3-----------------------------------------
E|---------------------------------------------------------------------------

E|--0---0---0---0------0---0---0---0------0---0---0---0------1---1---1---1--
B|--3---3---3---3------5---5---5---5------2---2---2---2------3---3---3---3--
G|--3---3---3---3------5---5---5---5------0---0---0---0------2---2---2---2--
D|--3---3---3---3------5---5---5---5------2---2---2---2------0---0---0---0--
A|--1---1---1---1------3---3---3---3------0---0---0---0---------------------
E|--------------------------------------------------------------------------

E|--0---0---0---0------0----
B|--3---3---3---3------2----
G|--3---3---3---3------0----
D|--3---3---3---3------2----
A|--1---1---1---1------0----
E|--------------------------

(I think I want it to stay..)

E|-----------------------------------
B|-----------3--3-----------------3--
G|--------2--------2-----------2-----
D|--0--3--------------3-----3--------
A|-----------------------0-----------
E|-----------------------------------

(City of stars.. you've never shined so brightly)

E|-----------------------------0------0---
B|-----------------------------2------3---
G|-----------0--0--------------0------2---
D|--------0--------3--0--------2------3---
A|-----1-----------------------0------0---
E|--3-------------------------------------







tabs and chords, guitar tabs, music contests, music covers, songsterr, reverbnation, renditions, tabulature, bollywood chords, ultimate guitar, yousician, guitar lessons, torrins, fender, gibson, acoustic guitar, electric guitar, youtube covers, gootar, guitar tuner, A-Z tabs, 911 tabs