Guitar Tabs for Chromology (intro) - Thank You Scientist

(/) Slide Up  (\) Slide Down  (h) Hammer On  (p) Pull Off  (b) Bend (r) Release (v) Vibrato (x) Muted

Tabs for Song : Chromology
BPM : 240

I will change the tab to what is actually comfortable to play eventually, but
these are at least the notes that are hit. Actual beats per min is 480

E|-----------------------------9-----7--4-----------------------------------------------------------
B|--6--2--------------2--6--9-----7--------7--5--------7--------------------------------------------
G|--------1--------1-----------------------------4--6-----4--9--6--4-----------4-----2--------6--8--
D|-----------4--3-----------------------------------------------------6--2--4-----2-----4--6--------
A|--------------------------------------------------------------------------------------------------
E|--------------------------------------------------------------------------------------------------

E|--------------------------------------------------------------------------9-----------4-----2-----
B|-----------------------------------------------------------------------9--------------------------
G|--10-------------------------------11-13-14-13-11-10-11-10-8--6--8--10----------------------------
D|-----11-------------11----------12----------------------------------------------------------------
A|--------11-9--8--11----8--9--12-------------------------------------------------------------------
E|--------------------------------------------------------------------------------------------------

E|-----------------------------9-----7--4-----------------------------------------------------------
B|--6--2--------------2--6--9-----7--------7--5--------7--------------------------------------------
G|--------1--------1-----------------------------4--6-----4--9--6--4-----------4-----2--------6--8--
D|-----------4--3-----------------------------------------------------6--2--4-----2-----4--6--------
A|--------------------------------------------------------------------------------------------------
E|--------------------------------------------------------------------------------------------------

E|-----9-----------------------------------2--------------------------------------------------------
B|--6-----9--6--7--10-7--------9--6-----------3--------2--------------------------------------------
G|-----------------------7--6--------6--2--------2--1--------1-----2--------------------------------
D|--------------------------------------------------------3-----4-----------------------------------
A|--------------------------------------------------------------------5--7--4-----------------------
E|--------------------------------------------------------------------------------------------------

Use manual mode to free up cursor. Paste any tab in acousterr tab maker and we'll play it !!!
tabs and chords, guitar tabs, music transcription, music technology, deep learning, music information retrieval, transcribe into tabs & chords, chordify, music renditions, songsterr, reverbnation, tabulature, bollywood chords, ultimate guitar, yousician, guitar lessons, acoustic guitar, electric guitar, guitar tuner, 911 tabs