Guitar Tabs for Vibrato

VIBRATO 

1) 

E|--------------
B|--------------
G|--------------
D|--------3--5v-
A|--3--5--------
E|--------------

2)

E|-----------------
B|-----------------
G|-----------------
D|--------10-12v---
A|--10-12----------
E|-----------------

3)

E|--------------
B|--------------
G|--------------
D|--------2--5v-
A|--2v-5--------
E|--------------

4)

E|-----------------
B|-----------------
G|-----------------
D|--------3v-5v----
A|--3v-5v----------
E|-----------------







tabs and chords, guitar tabs, music transcription, music technology, deep learning, music information retrieval, transcribe into tabs & chords, chordify, music renditions, songsterr, reverbnation, tabulature, bollywood chords, ultimate guitar, yousician, guitar lessons, acoustic guitar, electric guitar, guitar tuner, 911 tabs