Bass Tabs for Cazuza - Exagerado

BASS TAB
Cazuza - Exagerado

Intro
G|--------------------------------------
D|--------------------------------------
A|--------------------------------------
E|--3--3--3--3--3--3--3--3--3--3--3--3--

G|--------------------------------------
D|--------------------------------------
A|-----5--3-----5--3-----5--3-----5--3--
E|--3--------3--------3--------3--------

Verse
G|-----------------------------------------------------------------
D|-----------------------------------------------------------------
A|-----5--3-----5--3-----5--3--0--2--5-----5--3-----5--3-----5--2--
E|--3--------3--------0-----------------3--------3--------0--------

Chorus
G|-----------------------------------
D|-----------------------------------
A|--3--5-----5--3-----5--3--0--2--5--
E|--------3--------0-----------------

Pre-Chorus Tension
G|--------4--------------------------
D|-----------------------------------
A|-----2-----2-----------2--------2--
E|--0-----------1--2--0-----1--2-----

Guitar Solo
G|-----------------------------
D|--5--------5-----------------
A|-----5--3-----5--3-----5--3--
E|--------------------0--------
tabs and chords, guitar tabs, music transcription, music technology, deep learning, music information retrieval, transcribe into tabs & chords, chordify, music renditions, songsterr, reverbnation, tabulature, bollywood chords, ultimate guitar, yousician, guitar lessons, acoustic guitar, electric guitar, guitar tuner, 911 tabs