Canon In D Major - Pachelbel - Guitar Tabs

Acoustic guitar
    
    D                                                                                                                                                                                                                        A                                                                                                                                                                                                                                                                                                                                                                     D                                                                                                                                                                                                                        A                                                                                                                                                                                                                                                                                                                                                                     
E|-----------2-------------|-----------------------|
B|--------3--------------2-|---------3-----------2-|
G|-----2--------------2----|------4-----------2----|
D|--0--------------2-------|---4-----------4-------|
A|--------------0----------|2----------------------|
E|-------------------------|------------2----------|

    
    G                                                                                                                                                                                                                                                                                                                                                                                                                                                                                                                                                                                             G                                                                                                                                                                                                                                                                                                                                                                                                                                                                                                                                                                                             
E|-------------------------|-----------------------|
B|-----------0-----------3-|---------3-----------2-|
G|--------0-----------2----|------4-----------2----|
D|-----0-----------4-------|---5-----------2-------|
A|--------------5----------|------------0----------|
E|--3----------------------|3----------------------|

    
    D                                                                                                                                                                                                                                                                                                                                                                                                                                                                                                                                                                                             D                                                                                                                                                                                                                                                                                                                                                                                                                                                                                                                                                                                             
E|--2-----------0----------|-----------------------|
B|-----------3--------2----|3-----------2----------|
G|--------2--------2-------|------4-----------2----|
D|--0--0-----------------2-|---4-----4-----4-----4-|
A|--------------0----------|2----------------------|
E|-------------------------|------------2----------|

    
    G                                                                                                                                                                                                                                                                                                                                                                                                                                                                                                                                                                                             G                                                                                                                                                                                                                                                                                                                                                                                                                                                                                                                                                                                             
E|-------------------------|-----------------------|
B|--0----------------------|0--------0--2--------2-|
G|--------0-----2----------|------0-----------2----|
D|-----0-----0--------4----|---0-----------2-------|
A|--------------5--5-----5-|------------0----------|
E|--3----------------------|3----------------------|

    
    D                                                                                                                                                A                                                                                                                                                                                                                                                                                                                                                                                                                                             D                                                                                                                                                A                                                                                                                                                                                                                                                                                                                                                                                                                                             
E|--2-----------0----------|-----------------------|
B|--3-----3-----2-----2----|3--------3--2--------2-|
G|-----2-----------2-------|4-----4-----2-----2----|
D|--0--------0-----------2-|---4-----4-----4-----4-|
A|--------------0----------|2--------2-------------|
E|-------------------------|------------2----------|

    
    G                                                                                                                                                                                                                        F#m                                                                                                                                                                                                                                                                                                                                                                     G                                                                                                                                                                                                                        F#m                                                                                                                                                                                                                                                                                                                                                                     
E|-------------------------|-----------------------|
B|--0--------0-------------|0--------0--2--------2-|
G|--0-----0-----2--------2-|0-----0--0--2-----2----|
D|-----0-----0--4-----4--0-|---0-----------2-------|
A|--------------5--5-------|------------0----------|
E|--3----------------------|3----------------------|

    
    D                                                                                                                                                                                                                        A                                                                                                                                                                                                                                                                                                                                                                     D                                                                                                                                                                                                                        A                                                                                                                                                                                                                                                                                                                                                                     
E|--------2-----5-----3----|2-----------2-----0----|
B|--3-----3--------------2-|------3-----------0----|
G|-----2-----2--------2----|------4----------------|
D|--0--------------2-------|---4-----4-----4-------|
A|--------------0----------|2--------------------2-|
E|-------------------------|------------2----------|

    
                                                                                                                                                                                                                                                                                                                                                                            D5                                                                                                                                                                                                                                                                                                                                                                                                                                                                                                                                                                                             D5                                                                                                                                                                                                                     
E|-------------------------|-----------------------|
B|--3-----0-----3----------|3-----------3-----2----|
G|--------0-----------2----|------4-----------2----|
D|-----0-----0-----4-----4-|---5-----5-----2-----2-|
A|--------------5-----5----|------------0----------|
E|--3----------------------|3-----3----------------|

    
                                                                                                                                                                                                                                                                                                                                                                                                                                                                                                                                                                                                                                                                                                                                                                                                                                                                                                                                                                                                                                                                                                                                                                                              
E|-------------------------|------------------5--7-|
B|--3--2--3-----2----------|---3--2--0-----7-------|
G|-----------------2-------|-----------------------|
D|--4--------4--------2--4-|0-----------7----------|
A|--5-----------0----------|2-----------4----------|
E|-------------------------|-----------------------|

    
                                                                                                                                                                                                                                                                                                                                                                                                                                                                                                                                                                                                                                                                                                                                                                                                                                                                                                                                                                                                                                                                                                                                                                                              
E|--3--2--0--3-----0-------|-----------------------|
B|--------------7-----3--2-|0----------------------|
G|-------------------------|---2--0--------0-------|
D|-------------------------|---------4--2-----4--2-|
A|--------------5----------|------------0----------|
E|--3----------------------|3----------------------|

    
                                                                                                                                                                                                                                                                                                                                                                                                                                                                                                                                                                                                                                                                                                                                                                                                                                                                                                                                                                                                                                                                                                                                                                                              
E|-------------------------|-----------------------|
B|-------------------------|-----------------------|
G|-----------0--2-----2--0-|---4--2-----2--0-------|
D|--0--2--4--------2-------|4--------5--------4--2-|
A|--5-----------0----------|2----------------------|
E|-------------------------|------------2----------|

    
                                                                                                                                                                                                                                                                                                                                                                                                                                                                                                                                                                                                                                                                                                                                                                                                                                                                                                                                                                                                                                                                                                                                                                                              
E|-------------------------|-----------------------|
B|-------------------------|---------0-------------|
G|--0--------0-------------|0-----------2--4--2--0-|
D|-----4--2-----4--2--0--4-|---4--2----------------|
A|--------------5----------|------------0----------|
E|--3----------------------|3----------------------|

    
    D                                                                                                                                                                                                                        A                                                                                                                                                                                                                                                                                                                                                                     D                                                                                                                                                                                                                        A                                                                                                                                                                                                                                                                                                                                                                     
E|--------2-----0----------|------------2----------|
B|-----------3--2-----2----|3----------------------|
G|--------2--------2-----0-|------4-----------2----|
D|--0--0-------------------|---4-----4-----4-----2-|
A|--------------0----------|2----------------------|
E|-------------------------|------------2----------|

    
                                                                                                                                                                                                                                                                                                                                                                                                                                                                                                                                                                                                                                                                                                                                                                                                                                                                                                                                                                                                                                                                                                                                                                                              
E|--7-----------5----------|7-----------5----------|
B|--------0-----------7--5-|------0--------5-------|
G|-----------0-------------|---------0--------6----|
D|-----0--------0--0-------|---0-----------------7-|
A|-------------------------|------------0----------|
E|--3----------------------|3----------------------|

    
                                                                                                                                                                                                                                                                                                                                                                                                                                                                                                                                                                                                                                                                                                                                                                                                                                                                                                                                                                                                                                                                                                                                                                                              
E|--5--2--3--5--2--3--5--------------0--2--3-|2-----0--2-------------------------------|
B|--------------------2-----0--2--3----------|---3-----------------0-------------------|
G|-----2-----------------2-------------------|---------4-----0--2-----2--0--2-----0--2-|
D|--0--------0-------------------------------|---4--------4--------------------4-------|
A|--------------------0----------------------|2----------------------------------------|
E|-------------------------------------------|------------------2----------------------|

    
                                                                                                                                                                                                                                                                                                                                                                                                                                                                                                                                                                                                                                                                                                                                                                                                                                                                                                                                                                                                                                                                                                                                                                                              
E|-------------------------------------------|------------------------------0--2--3--5-|
B|-----0-----0-----------------------------0-|---0-----0--2--3-----0--2--3-------------|
G|--0-----2--0-----------------------0--2----|0-----2--0--------2----------------------|
D|-----0--------4--2--4--2--0--2--4----------|---0-------------------------------------|
A|--------------------5----------------------|------------------0----------------------|
E|--3----------------------------------------|3----------------------------------------|

    
                                                                                                                                                                                                                                                                                                                                                                                                                                                                                                                                                                                                                                                                                                                                                                                                                                                                                                                                                                                                                                                                                                                                                                                              
E|--2-----0--2--0-----0--------0--2--0-------|-----------------------------------------|
B|--3--3-----3-----3--2--2--3-----------3--2-|3-----2--3-----------------------2---3p2-|
G|--2--------2--------2-----------2----------|4--4-----4-----0---2p4--2-----2----------|
D|--0----------------------------------------|4--------4--4------4p------5--4----------|
A|--------------------0----------------------|2----------------------------------------|
E|-------------------------------------------|-------------------2p--------------------|

    
                                                                                                                                                                                                                                                                                                                                                                                                                                                                                                                                                                                                                                                                                                                                                                                                                                                                                                                                                                                                                                                                                                                                                                                              
E|-------------------------------------------|-----------------------------------------|
B|--0--3--2--0-----------------------0---2p3-|0--3--2--3--2--0--2--3--5--3--2--3--0--2-|
G|--0--------0--2--0---2p0-----0--2----------|0-----------------2-----------2-----0----|
D|--0--------0---------4p---4-----4----------|0-----------------2----------------------|
A|-------------------------------------------|------------------0----------------------|
E|--3----------------------------------------|3----------------------------------------|

    
    D                                                                                                                                                                                                                        A                                                                                                                                                                                                                                                                                                                                                                     D                                                                                                                                                                                                                        A                                                                                                                                                                                                                                                                                                                                                                     
E|--2-----0--2-----0--------0----|-----------------------------|
B|--3--3--------3--2--2--3-----2-|3-----2--3--0--2-------------|
G|--2--------------2-------------|4--4-----------2--2----------|
D|--0----------------------------|4--------------4-----5--4--2-|
A|-----------------0-------------|2----------------------------|
E|-------------------------------|---------------2-------------|

    
    G                                                                                                                                                                                                                        D                                                                                                                                                                                                                                                                                                                                                                     G                                                                                                                                                                                                                        D                                                                                                                                                                                                                                                                                                                                                                     
E|-------------------------------|-----------------------------|
B|--0----------------------------|0--0-------------------------|
G|--0--0--------0--2-----------2-|0-----2--0--------2----------|
D|--0-----4--2-----4-----2--4----|0-----------4--2-----5--4--2-|
A|-----------------5--5----------|---------------0-------------|
E|--3----------------------------|3----------------------------|

    
                                                                                                                                                                                                                                                                                                                                                                                                                                                                                                                                                                                                                                                                                                                                                                                                                                                                                                                                                                                                                                                                                                                                                                                              
E|-------------------------------|---------2-----2--2----------|
B|-----3--2--3-----------0--2----|---3--5-----3--------5--3--2-|
G|-----------------2--2--------2-|-----------------------------|
D|--4-----------4----------------|4----------------------------|
A|--5--------------0-------------|2----------------------------|
E|-------------------------------|---------------2-------------|

    
    G                                                                                                                                                                                                                                                                                                                                                                                                                                                                                                                                                                                             G                                                                                                                                                                                                                                                                                                                                                                                                                                                                                                                                                                                             
E|--------------------2--0------2p-3p-----------------------|
B|--0--0-----0--2--3--------3----|---3--------------------2-|
G|--------2----------------------|------6--4--4--2-----2--2-|
D|-----------------0-------------|------------------2-----2-|
A|-------------------------------|---------------0----------|
E|--3----------------------------|-3p-----------------------|

    
    D                                                                                                                                                                                                                        A6                                                                                                                                                                                                                                                                                                                                                                     D                                                                                                                                                                                                                        A6                                                                                                                                                                                                                                                                                                                                                                     
E|--2--------2--2--3--2--0-|-----------------------|
B|--3-----------2----------|3-----0--3--3--5--3--2-|
G|--2-----2-----2----------|4-----------2----------|
D|--0--0--------2----------|4--4-------------------|
A|--------------0----------|2----------------------|
E|-------------------------|------------2----------|

    
    G                                                                                                                                                                                                                        D                                                                                                                                                                                                                                                                                                                                                                     G                                                                                                                                                                                                                        D                                                                                                                                                                                                                                                                                                                                                                     
E|-----------0--2-----0----|-----------------------|
B|--0-----0-----3-----3----|3--------------------2-|
G|--0--0-----------2-----2-|0--5--4--5--2-----2----|
D|--0-----------0----------|0-----------2--2-------|
A|-------------------------|------------0----------|
E|--3----------------------|3----------------------|

    
                                                                                                                                                                                                                                                                                                                                                                                                                                                                                                                                                                                                                                                                                                                                                                                                                                                                                                                                                                                                                                                                                                                                                                                              
E|-----------5--5--7--5--3-|2--------2--2--3--2--0-|
B|-----------7--7--8--7--5-|3--------3--3--5--3--2-|
G|--------7--7--6----------|4-----4----------------|
D|-----0-------------------|---4-------------------|
A|--5-----------0----------|2----------------------|
E|-------------------------|------------2----------|

    
                                                                                                                                                                                                                                                                                                                                                                                                                                                                                                                                                                                                                                                                                                                                                                                                                                                                                                                                                                                                                                                                                                                                                                                              
E|-------------------------|-----------------------|
B|--3----------------------|3-----------(2)------2-|
G|-----5--4--5--2-----2----|0--5--4--5--2-----2----|
D|-----------------4-----0-|0--------------2-------|
A|--------------5----------|------------0----------|
E|--3----------------------|3----------------------|

    
                                                                                                                                                                                                                                                                                                                                                                                                                                                                                                                                                                                                                                                                                                                                                                                                                                                                                                                                                                                                                                                                                                                                                                                              
E|-----------------7-------|------10----------9----|
B|--------7--10-10----10-8-|7--------7--10p7-----7-|
G|-----7-------------------|---7-------------------|
D|--0----------------------|-----------------------|
A|--------------0----------|-------------9p--------|
E|-------------------------|7----------------------|

    
                                                                                                                                                                                                                                                                                                                                                                                                                                                                                                                                                                                                                                                                                                                                                                                                                                                                                                                                                                                                                                                                                                                                                                                              
E|--7-----------5----------|7-----------5--5-------|
B|-----------0-----------7-|------0-----5-----5----|
G|--0-----7-----------7----|0--------0--6--------6-|
D|-----0--------0--0-------|---0--------7----------|
A|-------------------------|------------0----------|
E|-------------------------|-----------------------|

    
    D                                                                                                                                                                                                                        A                                                                                                                                                                                                                                                                                                                                                                     D                                                                                                                                                                                                                        A                                                                                                                                                                                                                                                                                                                                                                     
E|--2----------------------|-----------------------|
B|--3--------3--------2----|3-----------------1----|
G|--2-----2--------2-------|4-----4-----------2----|
D|--0--0-----------------2-|4--4-----4-----------0-|
A|--------------0----------|2--------------0-------|
E|-------------------------|------------2----------|

    
    G                                                                                                                                                                                                                                                                                                                                                                                                                                                                                                                                                                                             G                                                                                                                                                                                                                                                                                                                                                                                                                                                                                                                                                                                             
E|-------------------------|0-------------------------------|
B|--0--------3--------3----|0--0---------3p2--3--2--3--2--3-|
G|--0-----0-----2--------2-|0-----0------2p-----------------|
D|--0--0-----------4-------|---------0---2p-----------------|
A|--------------5----------|-------------0p-----------------|
E|--3----------------------|3-------------------------------|

About Pachelbel's Canon - Johann Pachelbel's Canon is an accompanied canon by 3 violins and basso continuo . Neither the date nor circumstances of composition are known . The oldest surviving manuscript copy of the piece dates from 19th century . Pachelbel's Canon, although popular during his lifetime, went out of style, and remained in obscurity for centuries . A 1968 arrangement and recording of it by the Jean-Fran├žois Paillard chamber orchestra gained popularity . By the early 1980s its presence as background music was deemed inescapable . The canon was originally scored for three violins and basso continuo and paired with a gigue . Both movements are in the key of D major . Although a true canon at the unison in Pachelbel's Canon had an affiliation to band(s) - Pachelbel's Canon.

tabs and chords, guitar tabs, music transcription, music technology, deep learning, music information retrieval, transcribe into tabs & chords, chordify, music renditions, songsterr, reverbnation, tabulature, bollywood chords, ultimate guitar, yousician, guitar lessons, acoustic guitar, electric guitar, guitar tuner, 911 tabs