Guitar Tabs for Canon In D Major

(/) Slide Up  (\) Slide Down  (h) Hammer On  (p) Pull Off  (b) Bend (r) Release (v) Vibrato (x) Muted

Tabs for Song : 
https://www.youtube.com/watch?v=BNvf_8h2qcA

E|--2--0-----------------------0--------------------------------------------------------
B|--------3--2--0-----0--2--3-----------------------------------------------------------
G|-----------------2--------------------------------------------------------------------
D|--0--------------0--------------------------------------------------------------------
A|-----0--2--------------0--------------------------------------------------------------
E|-----------2--3-----3-----------------------------------------------------------------


E|--0h2------2--0-----------------------------------------------------------------------
B|--------3--------------2--3--------3--2--------2--0--------0-----------3--------------
G|-----2--------------2-----------4-----------2-----------0-----2-----2-----------------
D|--0--------------2-----------4-----------4-----------0--------0--0--------------------
A|--------------0-----------2-----------------------------------------------------------
E|--------------------------------------2-----------3-----------------------------------

E|-----------------------0--0h2------0--3--2--0--------0--------2--5--------------------
B|--0--------0--2-----3-----------3--2-----------3--------3--2--------------------------
G|--------0--------------------2-----2--------------4-----------------------------------
D|-----0-----------2--------0--------2--------------------------------------------------
A|--------------0--------------------0-----------2--------------------------------------
E|--3--------------------------------------------------------2--------------------------

E|--3--2--0--3--2--0--------------------------0--------2--2--0--------------------------
B|--------------------3--2--0-----0--3--2--3-----2--3--3--3--2--------------------------
G|-----------------------------2--------------------2--------2--------------------------
D|--------------0-----------------------------------0--------2--------------------------
A|--------------------------------------0--------------------0--------------------------
E|--3-----------------------3-----------------------------------------------------------

E|--------------7-----------5--------7--------9--7--5/-10-10----------------------------
B|-----3--3--2--------0--2--3--2--3--8--8-----10----------------------------------------
G|-----4--4--2-----0-----------------------7--------------------------------------------
D|-----4--4--4--------------0--------0--------------------0-----------------------------
A|--2--------4--5-----------------------------0-----------------------------------------
E|-----------2--------------------------------------------------------------------------

E|--2--3--5--2--3--5-----------------2--3--2--------2-----------------------------------
B|--------------------------2--3--5-----------3--5--------------0-----------3--2--3-----
G|--------------------2--4--------------------------------0--2-----2--0--2--------------
D|-----------------------------------------------------4--------------------------------
A|-----------------0-----------------------2--------------------------------------------
E|-----------------------------------------------------------2--------------------------

E|--------------------------------------------------------------------0-----0--2--3--5--
B|--0--3--2--0--------------------------2--3--0--3--2--3--2--0--2--3-----3--------------
G|--------------2--0--2--0-----0--2--4--------------------------------------------------
D|--------------------0-----4-----------------------------------------------------------
A|--------------------------------------------------------------0-----------------------
E|--3-----------------------------------------3-----------------------------------------

E|--5--2--3--5--2--3--5-----------------2--3--2--------2--------------------------------
B|-----------------------------2--3--5-----------3--5--------------0--------------------
G|-----------------------2--4--------------------------------0--2-----2--0--2-----0--2--
D|--0-----------------------------------------------------4--------------------4--------
A|--------------------0-----------------------2-----------------------------------------
E|--------------------------------------------------------------2-----------------------

E|--------------------------------------------------------------------------0--2--3--5--
B|-----0-----------------------------------0-----0-----0-----0-----0--2--3-----------2--
G|--0-----2--0-----------------------0--2-----0-----2-----2-----2--------------------2--
D|--------------4--2--4--2--0--2--4--------------------------------------------------2--
A|--------------------0-----------------------------------------0--------------------0--
E|--3-----------------------------------------3-----------------------------------------

E|--------2/5---5--3--2-----2--0-----------5--3-----5/7---5--3--------------------------
B|--3--------------------3--------3--0--3-----------------------3--2--3--0--2--------0--
G|--2--2--------------------------------2--------0--------------2-----------------2-----
D|--0-----------------------------------0-----------------------0--------------2--------
A|--------------0-----2-----------------------------------0-----------------0-----------
E|--------------------------2-----3-----------3-----------------------------------------

E|--------------5--2--5/7---3--2--0--3--2--0--------------------------0-----------------
B|--------3-----------------------------------3--2--0-----0--3--2--3-----2--------------
G|-----4-----4--------------------------------------0--2--------2-----------------------
D|--4-----------------------------------0-----------------------------------------------
A|--2-----------------------------------------------------------0-----------------------
E|--------------2-----------3-----------------------3-----------------------------------

E|-----------5--5--7--5--3--2--------2--2--3--2-----------------------------------------
B|--3-----3--7--7--8--7--5--------3--------------5--3--2--0--2--3--------3--------------
G|--2--2-----------------------4--------------------------------------2-----------------
D|--0--------------------------------------------------------------0--------------------
A|--------------0-----------2-----------------------------------0-----------------------
E|--------------------------------------2-----------3-----------------------------------

E|--------------------------------------------------------------------------------------
B|--3--2--0--1--2--------2--------------------------------------------------------------
G|--0-----------------2-----------------------------------------------------------------
D|-----------------2--------------------------------------------------------------------
A|--------------0-----------------------------------------------------------------------
E|--3-----------------------------------------------------------------------------------

E|-----------5--5--7--5--3--2--------2--2--3--2--------------------------2--------------
B|--3-----3--7--7--8--7--5--------3--------------5--3--2--0--2--3-----3-----------------
G|--2--2-----------------------4-----------------------------------2--------------------
D|--0-----------------------------------------------------------0-----------------------
A|--------------0-----------2-----------------------------------------------------------
E|--------------------------------------2-----------3-----------------------------------

E|--------------------------------------------------------0-----------------------------
B|--3--2--0--0h2---------2/3---3--------------------------3--15*------------------------
G|--0-----------2-----2-----------2--0--------------------2-----------------------------
D|-----------------2-----------0--------2h4p2p0-----0h2---0-----------------------------
A|--3-----------0--------------------------------4--------0-----------------------------
E|--------------------------------------------------------------------------------------
tabs and chords, guitar tabs, music contests, music covers, songsterr, reverbnation, renditions, tabulature, bollywood chords, ultimate guitar, yousician, guitar lessons, torrins, fender, gibson, acoustic guitar, electric guitar, youtube covers, gootar, guitar tuner, A-Z tabs, 911 tabs