Cannon Rock - Johann Pachelbel - Guitar Tabs

Guitarra Acomp.
    
                                                                                                                                                                                                                                                                                                                                                                                                                                                                                                                                                                                                                                                                                                                                                                                                                                                                                                                                                                                                                                                                                                                                                                                              
E|-------------------------|-----------------------|
B|--------------8--7-------|------------5--7-------|
G|--7----------------------|-----------------------|
D|--7----------------------|7----------------------|
A|--5-----5--5--------5--5-|7-----------------0--0-|
E|-------------------------|5-----5--5-------------|

    
                                                                                                                                                                                                                                                                                                                                                                                                                                                                                                                                                                                                                                                                                                                                                                                                                                                                                                                                                                                                                                                                                                                                                                                              
E|-------------------------|-----------------------|
B|--------------2-----3----|-----------------------|
G|--4----------------------|-----------------------|
D|--4----------------------|4-----------2-----4----|
A|--2-----2--2-----2-----2-|4-----------2-----4----|
E|-------------------------|2-----2--2--0--0--2--2-|

    
                                                                                                                                                                                                                                                                                                                                                                                                                                                                                                                                                                                                                                                                                                                                                                                                                                                                                                                                                                                                                                                                                                                                                                                              
E|-------------------------|-----------------------|
B|-------------------------|------------8--7--5----|
G|------------------4/---6-|7--------------------7-|
D|--5---------------5/---7-|7----------------------|
A|--5----------------------|5-----5--5-------------|
E|--3-----3--3--3----------|-----------------------|

    
                                                                                                                                                                                                                                                                                                                                                                                                                                                                                                                                                                                                                                                                                                                                                                                                                                                                                                                                                                                                                                                                                                                                                                                              
E|-------------------------|-----------------------|
B|-------------------------|-----------------------|
G|---------------4/-6p7--6-|-------------6/-7p9--7-|
D|--5----------------------|7----------------------|
A|--5----------------------|7----------------------|
E|--3-----3--3-------------|5-----5--5-------------|

    
                                                                                                                                                                                                                                                                                                                                                                                                                                                                                                                                                                                                                                                                                                                                                                                                                                                                                                                                                                                                                                                                                                                                                                                              
E|-------------------------|-----------------------|
B|--------------8--7-------|------------5--7-------|
G|--7----------------------|-----------------------|
D|--7----------------------|7----------------------|
A|--5-----5--5--------5--5-|7-----------------0--0-|
E|-------------------------|5-----5--5-------------|

    
                                                                                                                                                                                                                                                                                                                                                                                                                                                                                                                                                                                                                                                                                                                                                                                                                                                                                                                                                                                                                                                                                                                                                                                              
E|-------------------------|-----------------------|
B|--------------2-----3----|-----------------------|
G|--4----------------------|-----------------------|
D|--4----------------------|4-----------2-----4----|
A|--2-----2--2-----2-----2-|4-----------2-----4----|
E|-------------------------|2-----2--2--0--0--2--2-|

    
                                                                                                                                                                                                                                                                                                                                                                                                                                                                                                                                                                                                                                                                                                                                                                                                                                                                                                                                                                                                                                                                                                                                                                                              
E|-------------------------|-----------------------|
B|-------------------------|------------8--7--5----|
G|------------------4/---6-|7--------------------7-|
D|--5---------------5/---7-|7----------------------|
A|--5----------------------|5-----5--5-------------|
E|--3-----3--3--3----------|-----------------------|

    
                                                                                                                                                                                                                                                                                                                                                                                                                                                                                                                                                                                                                                                                                                                                                                                                                                                                                                                                                                                                                                                                                                                                                                                              
E|-------------------------|-----------------------|
B|-------------------------|-----------------------|
G|---------------4/-6p7--6-|---------------6-------|
D|--5----------------------|7----------------------|
A|--5----------------------|7----------------------|
E|--3-----3--3-------------|5-----5--5--5----------|

    
                                                                                                                                                                                                                                                                                                                                                                                                                                                                                                                                                                                                                                                                                                                                                                                                                                                                                                                                                                                                                                                                                                                                                                                              
E|-------------------------|-----------------------|
B|--------------8--7-------|------------5--7-------|
G|--7----------------------|-----------------------|
D|--7----------------------|7----------------------|
A|--5-----5--5--------5--5-|7-----------------0--0-|
E|-------------------------|5-----5--5-------------|

    
                                                                                                                                                                                                                                                                                                                                                                                                                                                                                                                                                                                                                                                                                                                                                                                                                                                                                                                                                                                                                                                                                                                                                                                              
E|-------------------------|-----------------------|
B|--------------2-----3----|-----------------------|
G|--4----------------------|-----------------------|
D|--4----------------------|4-----------2-----4----|
A|--2-----2--2-----2-----2-|4-----------2-----4----|
E|-------------------------|2-----2--2--0--0--2--2-|

    
                                                                                                                                                                                                                                                                                                                                                                                                                                                                                                                                                                                                                                                                                                                                                                                                                                                                                                                                                                                                                                                                                                                                                                                              
E|-------------------------|-----------------------|
B|-------------------------|------------8--7--5----|
G|------------------4/---6-|7--------------------7-|
D|--5---------------5/---7-|7----------------------|
A|--5----------------------|5-----5--5-------------|
E|--3-----3--3--3----------|-----------------------|

    
                                                                                                                                                                                                                                                                                                                                                                                                                                                                                                                                                                                                                                                                                                                                                                                                                                                                                                                                                                                                                                                                                                                                                                                              
E|-------------------------|-----------------------|
B|-------------------------|-----------------------|
G|---------------4/-6p7--6-|-------------6/-7p9--7-|
D|--5----------------------|7----------------------|
A|--5----------------------|7----------------------|
E|--3-----3--3-------------|5-----5--5-------------|

    
                                                                                                                                                                                                                                                                                                                                                                                                                                                                                                                                                                                                                                                                                                                                                                                                                                                                                                                                                                                                                                                                                                                                                                                              
E|-------------------------|-----------------------|
B|--------------8--7-------|------------5--7-------|
G|--7----------------------|-----------------------|
D|--7----------------------|7----------------------|
A|--5-----5--5--------5--5-|7-----------------0--0-|
E|-------------------------|5-----5--5-------------|

    
                                                                                                                                                                                                                                                                                                                                                                                                                                                                                                                                                                                                                                                                                                                                                                                                                                                                                                                                                                                                                                                                                                                                                                                              
E|-------------------------|-----------------------|
B|--------------2-----3----|-----------------------|
G|--4----------------------|-----------------------|
D|--4----------------------|4-----------2-----4----|
A|--2-----2--2-----2-----2-|4-----------2-----4----|
E|-------------------------|2-----2--2--0--0--2--2-|

    
                                                                                                                                                                                                                                                                                                                                                                                                                                                                                                                                                                                                                                                                                                                                                                                                                                                                                                                                                                                                                                                                                                                                                                                              
E|-------------------------|-----------------------|
B|-------------------------|------------8--7--5----|
G|------------------4/---6-|7--------------------7-|
D|--5---------------5/---7-|7----------------------|
A|--5----------------------|5-----5--5-------------|
E|--3-----3--3--3----------|-----------------------|

    
                                                                                                                                                                                                                                                                                                                                                                                                                                                                                                                                                                                                                                                                                                                                                                                                                                                                                                                                                                                                                                                                                                                                                                                              
E|-------------------------|-----------------------|
B|-------------------------|-----------------------|
G|---------------4/-6p7--6-|---------------6-------|
D|--5----------------------|7----------------------|
A|--5----------------------|7----------------------|
E|--3-----3--3-------------|5-----5--5--5----------|

    
                                                                                                                                                                                                                                                                                                                                                                                                                                                                                                                                                                                                                                                                                                                                                                                                                                                                                                                                                                                                                                                                                                                                                                                              
E|-------------------------|-----------------------|
B|--------------8--7-------|------------5--7-------|
G|--7----------------------|-----------------------|
D|--7----------------------|7----------------------|
A|--5-----5--5--------5--5-|7-----------------0--0-|
E|-------------------------|5-----5--5-------------|

    
                                                                                                                                                                                                                                                                                                                                                                                                                                                                                                                                                                                                                                                                                                                                                                                                                                                                                                                                                                                                                                                                                                                                                                                              
E|-------------------------|-----------------------|
B|--------------2-----3----|-----------------------|
G|--4----------------------|-----------------------|
D|--4----------------------|4-----------2-----4----|
A|--2-----2--2-----2-----2-|4-----------2-----4----|
E|-------------------------|2-----2--2--0--0--2--2-|

    
                                                                                                                                                                                                                                                                                                                                                                                                                                                                                                                                                                                                                                                                                                                                                                                                                                                                                                                                                                                                                                                                                                                                                                                              
E|-------------------------|-----------------------|
B|-------------------------|------------8--7--5----|
G|------------------4/---6-|7--------------------7-|
D|--5---------------5/---7-|7----------------------|
A|--5----------------------|5-----5--5-------------|
E|--3-----3--3--3----------|-----------------------|

    
                                                                                                                                                                                                                                                                                                                                                                                                                                                                                                                                                                                                                                                                                                                                                                                                                                                                                                                                                                                                                                                                                                                                                                                              
E|-------------------------|-----------------------|
B|-------------------------|-----------------------|
G|---------------4/-6p7--6-|-------------6/-7p9--7-|
D|--5----------------------|7----------------------|
A|--5----------------------|7----------------------|
E|--3-----3--3-------------|5-----5--5-------------|

About Pachelbel's Canon - Johann Pachelbel's Canon is an accompanied canon by 3 violins and basso continuo . Neither the date nor circumstances of composition are known . The oldest surviving manuscript copy of the piece dates from 19th century . Pachelbel's Canon, although popular during his lifetime, went out of style, and remained in obscurity for centuries . A 1968 arrangement and recording of it by the Jean-Fran├žois Paillard chamber orchestra gained popularity . By the early 1980s its presence as background music was deemed inescapable . The canon was originally scored for three violins and basso continuo and paired with a gigue . Both movements are in the key of D major . Although a true canon at the unison in Pachelbel's Canon had an affiliation to band(s) - Pachelbel's Canon.

tabs and chords, guitar tabs, music transcription, music technology, deep learning, music information retrieval, transcribe into tabs & chords, chordify, music renditions, songsterr, reverbnation, tabulature, bollywood chords, ultimate guitar, yousician, guitar lessons, acoustic guitar, electric guitar, guitar tuner, 911 tabs