Bass Tabs for Cake - Short Skirt / Long Jacket

Verse
G|--------------------------------------------------------------------------------------------------
D|--------------------------------------------------------------------------------------------------
A|-----------------------3--5--3--5--------------------------3--5--3--0--------------------0--------
D|--0--------------------------------------------------------------------3--------5-----------------

G|--------------------------------------------------------------------------------------------------
D|--------------------------------------------------------------------------------------------------
A|-----------------------3--5--3--5--------------------------3--5--3--0--------------------0--------
D|--0--------------------------------------------------------------------3--------5-----------------

G|--------------------------------------------------------------------------------------------------
D|--------------------------------------------------------------------------------------------------
A|-----------------------3--5--3--5--------------------------3--5--3--0--------------------0--------
D|--0--------------------------------------------------------------------3--------5-----------------

G|--------------------------------------------------------------------------------------------------
D|--------------------------------------------------------------------------------------------------
A|--5-----------------3-----------------------------5-----------------------------------------------
D|--------------------------------------------------------4-----------5-----------6-----------7-----

G|--------------------------------------------------------------------------------------------------
D|--------------------------------------------------------------------------------------------------
A|--5-----------------------------------------------------------------------------------------5-----
D|--------------------------------7-----------5-----5-----------------------------7-----------------

G|--------------------------------------------------------------------------------------------------
D|--------------------------------------------------------------------------------------------------
A|--5-----------------------------------------------------------------------------------------5-----
D|--------------------------------7-----------5-----5-----------------------------7-----------------

G|--------------------------------------------------------------------------------------------------
D|--------------------------------------------------------------------------------------------------
A|--5-----------------------------------------------------------------------------------------5-----
D|--------------------------------7-----------5-----5-----------------------------7-----------------

G|--------------------------------------------------------------------------------------------------
D|--------------------------------------------------------------------------------------------------
A|--5-----------------------------------------------------------------------------------------------
D|--------------------------------7-----------5-----5-----4-----5-----4-----5-----4-----5-----6-----

Chorus
G|--------------------------------------------------------------------------------------------------
D|--------------------------------------------------------------------------------------------------
A|--------------------------------------------------------------------------------------------------
D|--7-----------7--------5--7--5--2-----5-----6-----7-----------7--------5--7--5--2-----5-----6-----

G|--------------------------------------------------------------------------------------------------
D|--------------------------------------------------------------------------------------------------
A|--------------------------------------------------------------------------------------------------
D|--7-----------7--------5--7--5--2-----5-----6-----7-----------------------------------------------

Verse 2

Chorus 2

Bridge
G|--------------------------------------------------------------------------------------------------
D|--------------------------------------------------------------------------------------------------
A|--5-----------5--------3--5--3--0--------------------------------------------0--------------------
D|--------------------------------------6-----5-----------------5--------3--5-----3-----0-----------

Play the tab: https://www.acousterr.com/tab/cake-short-skirt-long-jacket
tabs and chords, guitar tabs, music transcription, music technology, deep learning, music information retrieval, transcribe into tabs & chords, chordify, music renditions, songsterr, reverbnation, tabulature, bollywood chords, ultimate guitar, yousician, guitar lessons, acoustic guitar, electric guitar, guitar tuner, 911 tabs