Bass Tabs for Cake - Short Skirt / Long Jacket (standard Tuning)

Verse 
(5x)
G|--------------------------------------------------------------------------------------------------
D|--------------------------------------------------------------------------------------------------
A|--5--------------------3--5--3--5--------------------------3--5--3--0-----------------------------
E|-----------------------------------------------------------------------1--------3--------5--------

G|--------------------------------------------------------------------------------------------------
D|--------------------------------------------------------------------------------------------------
A|--5-----------------3-----------------------------5-----------------------------------------------
E|--------------------------------------------------------2-----------3-----------4-----------5-----

Verse, cont'd 
(3x)
G|--------------------------------------------------------------------------------------------------
D|--------------------------------------------------------------------------------------------------
A|--5-----------------------------------------------------------------------------------------5-----
E|--------------------------------5-----------3-----3-----------------------------5-----------------

G|--------------------------------------------------------------------------------------------------
D|--------------------------------------------------------------------------------------------------
A|--5-----------------------------------------------------------------------------------------------
E|--------------------------------5-----------3-----3-----2-----3-----2-----3-----2-----3-----4-----

Chorus 
(3x)
G|--------------------------------------------------
D|--------------------------------------------------
A|--------------------------------------------------
E|--5-----------5--------3--5--3--0-----3-----4-----

Jacket...

Verse 2

Chorus 2

Bridge (5x)
G|--7-----------7--------5--7--5-----------------------------------------------2--------------------
D|--------------------------------7-----6-----5-----5-----------5--------3--5-----3-----0-----------
A|--------------------------------------------------------------------------------------------------
E|--------------------------------------------------------------------------------------------------

Verse 3

Chorus 3

Bridge

Outro:
G|--------------------------------------------------------------------------------------------------
D|--------------------------------------------------------------------------------------------------
A|--5--------------------3--5--3--5--------------------------3--5--3--0-----------------------------
E|-----------------------------------------------------------------------1--------3-----------5-----

G|--------------------------------------------------------------------------------------------------
D|--------------------------------------------------------------------------------------------------
A|--5--------------------3--5--3--5--------------------------3--5--3--0-----------------------------
E|-----------------------------------------------------------------------1--------3-----------------

Play this tab at https://www.acousterr.com/tab/short-skirt-long-jacket
tabs and chords, guitar tabs, music transcription, music technology, deep learning, music information retrieval, transcribe into tabs & chords, chordify, music renditions, songsterr, reverbnation, tabulature, bollywood chords, ultimate guitar, yousician, guitar lessons, acoustic guitar, electric guitar, guitar tuner, 911 tabs