Guitar Tabs for Byb

E|--------------------------------------0--3--6--------5--------------------------------0--6-----------------
B|-----------3--------------3--------3-----------------------------------------------2-----------------2--3--
G|--------2--------------3--------3--------------------------2-----2--3--2-----1--2--------------0--2--------
D|--0--3-----------0--3--------------------------------------------------------------------------------------
A|-----------------------------------------------------------------------------------------------------------
E|-----------------------------------------------------------------------------------------------------------

E|-----------5--------1--1--3-----1--3--1--0--6--------------------0--3--1-----0-----------------0--1--------------5-----
B|--------------------------------------------------------------2-----------2-----3-----3--2--3--------------------------
G|--2--3--2--------------------------------------------3--3--2--------------------------------------------2--3--2--------
D|-----------------------------------------------------------------------------------------------------------------------
A|-----------------------------------------------------------------------------------------------------------------------
E|-----------------------------------------------------------------------------------------------------------------------

E|--1--1--3-----1--3--1--0--6-----------------------3--------0--0-----------0--------------------------------------0--3--
B|--------------------------------------------3--2-----------------3-----3-----3--2--3--------------------------1--------
G|-----------------------------------3--3--2--------------------------------------------------------------0--3-----------
D|-----------------------------------------------------------------------------------------------------2-----------------
A|--------------------------------------------------------------------------------------------3-----3--------------------
E|-----------------------------------------------------------------------------------------------------------------------

E|--1--0-----------------------------------------------------------------0-----5--------0-----------------0--1-----1-----
B|-----------3--1-----------------------------------------------------2-----2--------------3-----3--2--3-----------------
G|--------------------3-----2-----2--3--2--1--2-----------------0--2--------------2--------------------------------------
D|-----------------------------------------------------------2-----------------------------------------------------------
A|-----------------------------------------------------0--4--------------------------------------------------------------
E|-----------------------------------------------------------------------------------------------------------------------

E|--1-----------0--1--0-----0--1--0--3-----1-----0-----0-----------------------------------------------------------------
B|-----------------------4-----------------------------------------------------------1-----------------------------------
G|-----3--3--------------------------------------------------2-----2-----1--2--3--2-----3-----3--2-----2--0-----0--------
D|-----------------------------------------------------------------------------------------------------------------3-----
A|-----------------------------------------------------------------------------------------------------------------------
E|-----------------------------------------------------------------------------------------------------------------------

E|--------------------------------------------
B|--------2-----------------------------------
G|--3--2-----------2-----0--------0-----0-----
D|-----------------------------------4--------
A|--------------------------------------------
E|--------------------------------------------
tabs and chords, guitar tabs, music transcription, music technology, deep learning, music information retrieval, transcribe into tabs & chords, chordify, music renditions, songsterr, reverbnation, tabulature, bollywood chords, ultimate guitar, yousician, guitar lessons, acoustic guitar, electric guitar, guitar tuner, 911 tabs