Guitar Tabs for Boio

(/) Slide Up  (\) Slide Down  (h) Hammer On  (p) Pull Off  (b) Bend (r) Release (v) Vibrato (x) Muted

Tabs for Song : 
BPM : 200

Song lyrics here

Song lyrics here

E|--
B|--
G|--
D|--
A|--
E|--

E|--------------------------x-----------------------------------x-----------------------
B|--------------------------x-----------------------------------x-----------------------
G|--------------------------x-----------------------------------x-----------------------
D|--------------7--7--7-----x-----------------------3--2--5--3--x--------------------3--
A|--5--5--5--5--5--5--5-----x-----------------------3--2--5--3--x--------------------3--
E|--3--3--3--3--------------x-----0--0--0--0--0--0--------------x--0--0--0--0--0--0-----


Paste any tab in acousterr's tab maker and we'll play it !!!
Now supports capo and sound effects for vibrato/pull-off/hammer/bends/mutes etc !!! Checkout help section

Guitar Tabs for Boio







 

E|--3-----------2--------------
B|--3-----------3--------------
G|--4-----------2--------------
D|--5-----------0--------------
A|--5--------------------------
E|--3--------------------------

Bass Tabs for Boio









G|-----------------------
D|-----------------------
A|--------------5--5--5--
E|--3--3--3--3-----------

tabs and chords, guitar tabs, music transcription, music technology, deep learning, music information retrieval, transcribe into tabs & chords, chordify, music renditions, songsterr, reverbnation, tabulature, bollywood chords, ultimate guitar, yousician, guitar lessons, acoustic guitar, electric guitar, guitar tuner, 911 tabs