Guitar Tabs for Blackbird

(/) Slide Up  (\) Slide Down  (h) Hammer On  (p) Pull Off  (b) Bend (r) Release (v) Vibrato

Tabs for Song : Blackbird

Song lyrics here
E|-------------------------------
B|--0-----1-----3-----12------12-
G|-----0-----0-----0------0------*
D|-------------------------------
A|--------0-----2-----10----10---
E|--3----------------------------

E|--------------------------
B|---5--8--7-10-8--8--7--8--
G|--------------*--*--*--------
D|--------------------------
A|---3--7--5-9--7--6--5--7--
E|--------------------------

E|----------------------------------------------
B|---5--4--3--2--1---------------5--3--2--1--0--
G|-----*--*--*--*-------------O-----------------
D|--------------0-------------------------0-----
A|---3--3--2--0----R-------------3--2--0--------
E|-------------------------------------------3--
accomp.
E|--------------------
B|--10-8--6--5--3--5--
G|--------------------
D|--------------------x2(wlkdwnrepeat
A|--8--7--5--3--1--3--
E|--------------------

Song lyrics here
E|--
B|--
G|--
D|--
A|--
E|--

Now supports capo and sound effects for vibrato/pull-off/hammer/bends etc !!! Checkout help section
tabs and chords, guitar tabs, music transcription, music technology, deep learning, music information retrieval, transcribe into tabs & chords, chordify, music renditions, songsterr, reverbnation, tabulature, bollywood chords, ultimate guitar, yousician, guitar lessons, acoustic guitar, electric guitar, guitar tuner, 911 tabs