Guitar Tabs for The Beatles - Blackbird

The Beatles - Blackbird

Intro

E|--------------------------------------------------
B|--0-----1-----3-----12-12----12----12-12----12----
G|-----0-----0-----0--------------------------------
D|--------------------------------------------------
A|--------0-----2-----10----10----10-10----10----10-
E|--3-----------------------------------------------

Verse

   Blackbird singing in the dead of night
E|--------------------------------------------------------------------
B|--0-----------1-----------3--------12----12----12----12-12----12----
G|--------0-----------0-----------0-----------------------------------
D|--------------------------------------------------------------------
A|--------------0-----------2--------10-------10----10-10----10----10-
E|--3-----------------------------------------------------------------

   Take these broken wings and learn to fly
E|-----------3-----------------5--------------------------------------
B|--5-----------------7-----------------8-----8--8-----8-----8--8-----
G|-----0--------0--------0--------0-----------------0--------------0--
D|--------------------------------------------------------------------
A|--3--------4--------5--------6--------7--7-----------6--6-----------
E|--------------------------------------------------------------------
  
   All     your     life
E|-----------3-----------------------------------
B|--7--------------5-----5--5-----4-----4--4-----
G|-----0--------0--------------0--------------0--
D|-----------------------------------------------
A|--5--------4-----3--3-----------3--3-----------
E|-----------------------------------------------

   You were only waiting for  this  moment  to  arise
E|--------------------------------------------------------------
B|--3-----3--3-----2-----2--2-----1-----1--1-----0-----0--0-----
G|--------------0-----------------------------0--------------0--
D|--------------------------------0--0--------------------------
A|--2--2-----------0--0--------0--------------------------------
E|-----------------------------------------------3--3-----------

E|--------------------------------------------------------------------------
B|--5-----3-----2-----2--2-----1-----1--1-----1-----1--1-----0-----0--0-----
G|-----0-----0--------------0--------------0--------------0--------------0--
D|-----------------------------0--0-----------0--0--------------------------
A|--3-----2-----0--0--------------------------------------------------------
E|-----------------------------------------------------------3--3-----------

2nd Verse



   Blackbird singing in the dead of night
E|--------------------------------------------------------------------
B|--0-----------1-----------3--------12----12----12----12-12----12----
G|--------0-----------0-----------0-----------------------------------
D|--------------------------------------------------------------------
A|--------------0-----------2--------10-------10----10-10----10----10-
E|--3-----------------------------------------------------------------

   Take these sunken eyes and learn to see
E|-----------3-----------------5--------------------------------------
B|--5-----------------7-----------------8-----8--8-----8-----8--8-----
G|-----0--------0--------0--------0-----------------0--------------0--
D|--------------------------------------------------------------------
A|--3--------4--------5--------6--------7--7-----------6--6-----------
E|--------------------------------------------------------------------
  
   All     your     life
E|-----------3-----------------------------------
B|--7--------------5-----5--5-----4-----4--4-----
G|-----0--------0--------------0--------------0--
D|-----------------------------------------------
A|--5--------4-----3--3-----------3--3-----------
E|-----------------------------------------------

   You were only waiting for this moment to be free
E|--------------------------------------------------------------
B|--3-----3--3-----2-----2--2-----1-----1--1-----0-----0--0-----
G|--------------0-----------------------------0--------------0--
D|--------------------------------0--0--------------------------
A|--2--2-----------0--0--------0--------------------------------
E|-----------------------------------------------3--3-----------

Chorus

    Blackbird fly
E|--------------------------------------------------------
B|--10----8-----6-----5-----3-----3--3-----5-----5--5-----
G|-----0-----0-----0-----0--------------0--------------0--
D|--------------------------------------------------------
A|--8-----7-----5-----3-----1--1-----------3--3-----------
E|--------------------------------------------------------

   Blackbird fly                           Into the light of the dark black night
E|-----------------------------------------------------------------------
B|--10----8-----6-----5-----3-----3--3-----2-----2--2-----1-----1--1-----
G|-----0-----0-----0-----0--------------0--------------0--------------0--
D|--------------------------------------------------------0--0-----------
A|--8-----7-----5-----3-----1--1-----------0--0--------------------------
E|-----------------------------------------------------------------------

Bridge

E|--------------------------------------------------
B|--0-----1-----3-----12-12----12----12-12----12----
G|-----0-----0-----0--------------------------------
D|--------------------------------------------------
A|--------0-----2-----10----10----10-10----10----10-
E|--3-----------------------------------------------

E|-----------3-----------------5--------------------------------------
B|--5-----------------7-----------------8-----8--8-----8-----8--8-----
G|-----0--------0--------0--------0-----------------0--------------0--
D|--------------------------------------------------------------------
A|--3--------4--------5--------6--------7--7-----------6--6-----------
E|--------------------------------------------------------------------

E|-----------3-----------------------------------
B|--7--------------5-----5--5-----4-----4--4-----
G|-----0--------0--------------0--------------0--
D|-----------------------------------------------
A|--5--------4-----3--3-----------3--3-----------
E|-----------------------------------------------

E|--------------------------------------------------------------
B|--3-----3--3-----2-----2--2-----1-----1--1-----0-----0--0-----
G|--------------0-----------------------------0--------------0--
D|--------------------------------0--0--------------------------
A|--2--2-----------0--0--------0--------------------------------
E|-----------------------------------------------3--3-----------

2nd Chorus

    Blackbird fly
E|--------------------------------------------------------
B|--10----8-----6-----5-----3-----3--3-----5-----5--5-----
G|-----0-----0-----0-----0--------------0--------------0--
D|--------------------------------------------------------
A|--8-----7-----5-----3-----1--1-----------3--3-----------
E|--------------------------------------------------------

   Blackbird fly                           Into the light of the dark black night
E|-----------------------------------------------------------------------
B|--10----8-----6-----5-----3-----3--3-----2-----2--2-----1-----1--1-----
G|-----0-----0-----0-----0--------------0--------------0--------------0--
D|--------------------------------------------------------0--0-----------
A|--8-----7-----5-----3-----1--1-----------0--0--------------------------
E|-----------------------------------------------------------------------

2nd Bridge

E|-----------------------------------------------------------------------------
B|--0-----1-----3-----12-12----12----12-12----12----12----12----12----12----12-
G|-----0-----0-----0-----------------------------------------------------------
D|-----------------------------------------------------------------------------   ...
A|--------0-----2-----10----10----10-10----10----10----10----10----10----10----
E|--3--------------------------------------------------------------------------

E|---------------------------------------------------------------------
B|--\0-----1-----3-----5-----3-----2-----1-----1--1-----1-----1--1-----
G|------0-----0-----0-----0-----0-----0-------------0---------------0--
D|---------------------------------------0-0------------0--0-----------
A|---------0-----2-----3-----2-----0-----------------------------------
E|--\3-----------------------------------------------------------------

3rd Verse

   Blackbird singing in the dead of night
E|--------------------------------------------------------------------
B|--0-----------1-----------3--------12----12----12----12-12----12----
G|--------0-----------0-----------0-----------------------------------
D|--------------------------------------------------------------------
A|--------------0-----------2--------10-------10----10-10----10----10-
E|--3-----------------------------------------------------------------

   Take these broken wings and learn to fly
E|-----------3-----------------5--------------------------------------
B|--5-----------------7-----------------8-----8--8-----8-----8--8-----
G|-----0--------0--------0--------0-----------------0--------------0--
D|--------------------------------------------------------------------
A|--3--------4--------5--------6--------7--7-----------6--6-----------
E|--------------------------------------------------------------------
  
   All     your     life
E|-----------3-----------------------------------
B|--7--------------5-----5--5-----4-----4--4-----
G|-----0--------0--------------0--------------0--
D|-----------------------------------------------
A|--5--------4-----3--3-----------3--3-----------
E|-----------------------------------------------

   You were only waiting for  this  moment  to  arise
E|--------------------------------------------------------------
B|--3-----3--3-----2-----2--2-----1-----1--1-----0-----0--0-----
G|--------------0-----------------------------0--------------0--
D|--------------------------------0--0--------------------------
A|--2--2-----------0--0--------0--------------------------------
E|-----------------------------------------------3--3-----------

   You were only waiting for  this  moment  to  arise
E|--------------------------------------------------------------
B|--3-----3--3-----2-----2--2-----1-----1--1-----0-----0--0-----
G|--------------0-----------------------------0--------------0--
D|--------------------------------0--0--------------------------
A|--2--2-----------0--0--------0--------------------------------
E|-----------------------------------------------3--3-----------

   You were only waiting for  this  moment  to  arise
E|--------------------------------------------------------
B|--3-----3--3-----2-----2--2-----1-----1--1--------3-----
G|--------------0-----------------------------0-----0-----
D|--------------------------------0--0--------------------
A|--2--2-----------0--0--------0--------------------------
E|-----------------------------------------------------3--

tabs and chords, guitar tabs, music transcription, music technology, deep learning, music information retrieval, transcribe into tabs & chords, chordify, music renditions, songsterr, reverbnation, tabulature, bollywood chords, ultimate guitar, yousician, guitar lessons, acoustic guitar, electric guitar, guitar tuner, 911 tabs