Blackbird - Guitar Tabs

INTRO:
E||---------------------------------------|--------------------------------------------------|
B||----0-----------1-----------3----------|---12-------12----12-------12-------12----12------|
G||.---------0-----------0-----------0----|---------0-----------0-----------0-----------0----|
D||.--------------------------------------|--------------------------------------------------|
A||----------------0-----------2----------|---10----------10----------10----------10---------|
E||----3----------------------------------|--------------------------------------------------|

VERSE: 
E |----------------3-----------------------5----------|--------------------------------------------------|
B |----5-----------------------7----------------------|---8--------8-----8--------8--------8-----8-------|
G |----------0-----------0-----------0-----------0----|---------0-----------0-----------0-----------0----|
D |---------------------------------------------------|--------------------------------------------------|
A |----3-----------4-----------5-----------6----------|---7-----------7-----------6-----------6----------|
E |---------------------------------------------------|--------------------------------------------------|

E |----------------3----------------------------------------------------------|
B |----7-----------------------5--------5-----5--------4--------4-----4-------|
G |----------0-----------0-----------0-----------0-----------0-----------0----|
D |---------------------------------------------------------------------------|
A |----5-----------4-----------3-----------3-----------3-----------3----------|
E |---------------------------------------------------------------------------|

E |---------------------------------------------------------------------------|
B |----3--------3-----3--------2--------2-----2--------1--------1-----1-------|
G |----------0-----------0-----------0-----------0-----------0-----------0----|
D |----------------------------------------------------0-----------0----------|
A |----2-----------2-----------0-----------0----------------------------------|
E |---------------------------------------------------------------------------|

TURNAROUND
   -----------------------------------------------------------------------...
  |  1.

E |---------------------------------------------------|--------------------------------------------------|
B |----0--------0-----0--------5-----------3----------|---2--------2-----2--------1--------1-----1-------|
G |----------0-----------0-----------0-----------0----|---------0-----------0-----------0-----------0----|
D |---------------------------------------------------|---------------------------0-----------0----------|
A |----------------------------3-----------2----------|---0-----------0----------------------------------|
E |----3-----------3----------------------------------|--------------------------------------------------|

  ... -----------------  -------------------
                       ||  2.               |
  #11                  ||                   |
  2/2 G
E |------------------------------|--|--------------------------|
B |----0--------0-----0----------|--|---0--------0-----0-------|
G |----------0-----------0----.--|--|---------0-----------0----|
D |---------------------------.--|--|--------------------------|
A |------------------------------|--|--------------------------|
E |----3-----------3-------------|--|---3-----------3----------|


CHORUS 
E |---------------------------------------------------|--------------------------------------------------|
B |----10----------8-----------6-----------5----------|---3--------3-----3--------5---------5-----5------|
G |----------0-----------0-----------0-----------0----|---------0-----------0-----------0-----------0----|
D |---------------------------------------------------|--------------------------------------------------|
A |----8-----------7-----------5-----------3----------|---1-----------1-----------3-----------3----------|
E |---------------------------------------------------|--------------------------------------------------|

E |---------------------------------------------------|--------------------------------------------------|
B |----10----------8-----------6-----------5----------|---3--------3-----3--------2--------2-----2-------|
G |----------0-----------0-----------0-----------0----|---------0-----------0-----------0-----------0----|
D |---------------------------------------------------|--------------------------------------------------|
A |----8-----------7-----------5-----------3----------|---1-----------1-----------0-----------0----------|
E |---------------------------------------------------|--------------------------------------------------|

E |------------------------------|
B |----1--------1-----1-----1----|
G |----------0-----------0-------|
D |----0-----------0-------------|
A |------------------------------|
E |------------------------------|

E |---------------------------------------|-----------------------------------------------|
B |----0-----------1-----------3----------|---12-------12----12-------12----12----12------|
G |----------0-----------0-----------0----|---------0-----------0-----------0-------------|
D |---------------------------------------|-----------------------------------------------|
A |----------------0-----------2----------|---10----------10----------10----------10------|
E |----3----------------------------------|-----------------------------------------------|

INSTRUMENTAL VERSE (3) 

E |----------------3-----------------------5----------|--------------------------------------------------|
B |----5-----------------------7----------------------|---8--------8--------8-----8--------8-----8-------|
G |----------0-----------0-----------0-----------0----|---------0--------0--------------0-----------0----|
D |---------------------------------------------------|--------------------------------------------------|
A |----3-----------4-----------5-----------6----------|---7-----------7-----------6-----------6----------|
E |---------------------------------------------------|--------------------------------------------------|

E |----------------3----------------------------------------------------------|
B |----7-----------------------5--------5-----5--------4--------4-----4-------|
G |----------0-----------0-----------0-----------0-----------0-----------0----|
D |---------------------------------------------------------------------------|
A |----5-----------4-----------3-----------3-----------3-----------3----------|
E |---------------------------------------------------------------------------|

E |---------------------------------------------------------------------------|-----------------|
B |----3--------3-----3--------2--------2-----2--------1--------1-----1-------|---0-------------|
G |----------0-----------0-----------0-----------0-----------0-----------0----|---0-------------|
D |----------------------------------------------------0-----------0----------|-----------------|
A |----2-----------2-----------0-----------0----------------------------------|-----------------|
E |---------------------------------------------------------------------------|---3-------------|

CHORUS 2 
E |---------------------------------------------------|---------------------------0--------0-----0-------|
B |----10----------8-----------6-----------5----------|---3--------3-----3-------------------------------|
G |----------0-----------0-----------0-----------0----|---------0-----------0-----------0-----------0----|
D |---------------------------------------------------|--------------------------------------------------|
A |----8-----------7-----------5-----------3----------|---1-----------1-----------3-----------3----------|
E |---------------------------------------------------|--------------------------------------------------|

E |---------------------------------------------------|--------------------------------------------------|
B |----10----------8-----------6-----------5----------|---3-----3-----------3-----2--------2-----2-------|
G |----------0-----------0-----------0-----------0----|------------------0--------------0-----------0----|
D |---------------------------------------------------|--------------------------------------------------|
A |----8-----------7-----------5-----------3----------|---1-----------1-----------0-----------0----------|
E |---------------------------------------------------|--------------------------------------------------|

E |------------------------------|
B |----1--------1-----1-----1----|
G |----------0-----------0-------|
D |----0-----------0-------------|
A |------------------------------|
E |------------------------------|

BRIDGE 

E |------------------------------|--------------------------------------------------|
B |----0--------1--------3-------|---12-------12----12-------12-------12----12------|
G |------------------------------|---------0-----------0-----------0-----------0----|
D |------------------------------|--------------------------------------------------|
A |-------------0--------2-------|--------------------------------------------------|
E |----3-------------------------|---10----------10----------10----------10---------|

E |---------------------------------------------------|--------------------------------------------|
B |----12-------12----12-------12-------12----12------|---12-------12----12-------12----------12/--|
G |----------0-----------0-----------0-----------0----|---------0-----------0-----0----------------|
D |---------------------------------------------------|--------------------------------------------|
A |----10----------10----------10----------10---------|---10----------10----------10----------10/--|
E |---------------------------------------------------|--------------------------------------------|

E||------------------------------------------|--------------------------------------|
B||-------0-----------1-----------3----------|---5-----------3-----------2----------|
G||-------------0-----------0-----------0----|---------0-----------0-----------0----|
D||------------------------------------------|--------------------------------------|
A||-------------------0-----------2----------|---3-----------2-----------0----------|
E||-------3----------------------------------|--------------------------------------|

E |---------------------------|
B |----1--------1-----1-------|
G |----------0-----------0----|
D |----0-----------0----------|
A |---------------------------|
E |---------------------------|

E||---------------------------------------|--------------------------------------------------|
B||----0-----------1-----------3----------|---12-------12----12-------12-------12----12------|
G||.---------0-----------0-----------0----|---------0-----------0-----------0-----------0----|
D||.--------------------------------------|--------------------------------------------------|
A||----------------0-----------2----------|---10----------10----------10----------10---------|
E||----3----------------------------------|--------------------------------------------------|

VERSE 4 
E |----------------3-----------------------5----------|--------------------------------------------------|
B |----5-----------------------7----------------------|---8--------8-----8--------8--------8-----8-------|
G |----------0-----------0-----------0-----------0----|---------0-----------0-----------0-----------0----|
D |---------------------------------------------------|--------------------------------------------------|
A |----3-----------4-----------5-----------6----------|---7-----------7-----------6-----------6----------|
E |---------------------------------------------------|--------------------------------------------------|

E |----------------3----------------------------------------------------------|
B |----7-----------------------5-----5-----------5-----4-----4-----------4----|
G |----------0-----------0--------------0-----0-----------------0-----0-------|
D |---------------------------------------------------------------------------|
A |----5-----------4-----------3-----------3-----------3-----------3----------|
E |---------------------------------------------------------------------------|

E||---------------------------------------------------|-----------------------------------------------|--|
B||----3--------3-----3--------2--------2-----2-------|---1--------1-----1--------0-------------------|--|
G||.---------0-----------0-----------0-----------0----|---------0-----------0-----0----------------.--|--|
D||.--------------------------------------------------|---0-----------0----------------------------.--|--|
A||----2-----------2-----------0-----------0----------|-----------------------------------------------|--|
E||---------------------------------------------------|---------------------------3-------------------|--|

    

About Blackbird (Beatles song) : The Beatles' "Blackbird" was written by Paul McCartney and credited to Lennon–McCartney . The lyrics were inspired by hearing the call of a blackbird in Rishikesh, India, and by the unfortunate state of race relations . The guitar accompaniment for "Blackbird" was inspired by Johann Sebastian Bach's Bourrée in E minor . As teenagers, he and George Harrison tried to learn Bourée as a show off piece . The fingerpicking technique that McCartney uses in the song was taught to him by folk singer Donovan . McCartney played "Blackbird" for the fans camped outside his house . The finger It was released in 1968. It was released as part of album The Beatles. The genre is folk. The track was release in 1968. Blackbird (Beatles song) has a significant contribution from artist(s) Paul McCartney,McCartney,McCartney. It is related to the album(s) - The Beatles. The track has an affiliation to the band(s) - the Beatles.

About The Beatles : The Beatles formed in Liverpool in 1960 . They were integral to the development of 1960s counterculture and popular music's recognition as art form . The Beatles are regarded as the most influential band of all time . The Beatles built their reputation playing clubs in Liverpool and Hamburg over three years from 1960 . The core trio of Lennon, McCartney and Harrison, together since 1958, went through succession of drummers, including Pete Best, before asking Starr to join them in 1962 . By early 1964, the Beatles were international stars, leading the "British Invasion" of the United States pop market . From 1965 onwards, they produced records of greater complexity, including the albums Rubber Soul and Revolver . The Beatles The group has many notable artists like Paul McCartney,George Harrison,Ringo Starr. Their music is influenced by genres - rock pop.

About The Beatles (album) : The Beatles is the ninth studio album and only double album by the English rock band . Its plain white sleeve has no graphics or text other than the band's name embossed . Most of the songs on the album were written during March and April 1968 at a Transcendental Meditation course in Rishikesh, India . The production aesthetic ensured that the album's sound was scaled-down and less reliant on studio innovation . The Beatles returned to EMI Studios in London in May 1968 . During these sessions, arguments broke out among the foursome over creative differences and John Lennon's new partner, Yoko Ono, whose presence subverted the Beatles' policy regarding wives and girlfriends in It had an affiliation to bands - The Beatles,the Beatles. Its music is influenced by genres - rock pop.

tabs and chords, guitar tabs, music transcription, music technology, deep learning, music information retrieval, transcribe into tabs & chords, chordify, music renditions, songsterr, reverbnation, tabulature, bollywood chords, ultimate guitar, yousician, guitar lessons, acoustic guitar, electric guitar, guitar tuner, 911 tabs