Guitar Tabs for Binte Dil

Binte dil x2
E|--------------------------------------------------------------------------------------
B|---3/5-----5-----5--5--5--5------------------------------------6/8--8--8---6h-8p6--5--
G|--------7--------------------7---7/9--7---------5/7--5--7-----------------------------
D|--------------------------------------------------------------------------------------
A|--------------------------------------------------------------------------------------
E|--------------------------------------------------------------------------------------


Pesh hai kullu-shabab
Khidmat-e-aali janaab
E|--------------------------------------------------------------
B|--------------------------------------------------------------
G|-----5-----5--5---5/7-----5-----------------------------------
D|--------------------------------------5-----5--5--------------
A|-----------------------------8--8--8--------------5---5/7-----
E|--------------------------------------------------------------

Pesh hai kullu-shabab
Khidmat-e-aali janaab
E|-----------------------------------------------------------
B|-----------------------------------------------------------
G|--5-----5--5---5/7-----5-----------------------------------
D|-----------------------------------5---3/5--3--------------
A|--------------------------8--8--8--------------5---5/7-----
E|-----------------------------------------------------------

Aatish qadah adaaon se
E|-----------------------------------
B|-----------------------------------
G|------7/9--9--7--5--4--5---5/7-----
D|-----------------------------------
A|-----------------------------------
E|-----------------------------------

Aatish qadah adaaon se
Jal uthega aapke
Deeda-e-tar ka hijaab
E|-----------------------------------------------------------------------------------
B|-----------------------------------------------------------------------------------
G|---7/9--9--7--5--4--5---5/7--7--5--4--------4---4h5--------------------------------
D|--------------------------------------7--7--------------3--3--5--5--3--3-----------
A|--------------------------------------------------------------------------5---5/7--
E|-----------------------------------------------------------------------------------
tabs and chords, guitar tabs, music contests, music covers, songsterr, reverbnation, renditions, tabulature, bollywood chords, ultimate guitar, yousician, guitar lessons, torrins, fender, gibson, acoustic guitar, electric guitar, youtube covers, gootar, guitar tuner, A-Z tabs, 911 tabs